Fuzz

Earthen Gate

Fuzz

tabs Intermediate intermediate

by  ANG-LETRA

save to print version add songbook text version e-mail correct tuner
chordsukulelecavacokeyboardtabbassdrumsharmonicaflute Guitar Pro
close

there isn't a video lesson for this song

chords

Earthen Gate

	  		Intro: 

e|--------------------------------| 
B|--------------------------------| 
G|--------------------------------| 
D|--------------------------------| 
A|--------------------------------| 
E|----0-----0-0------0-----0-0----| 

e|-----------7----------------------------------------------| 
B|---------8----10--7tr8-7----------------------------------| 
G|----9--9-----------------9-7-9--9s7-----7---9--9--7--9----| 
D|-------------------------------------5s7--7---------------| 
A|----------------------------------------------------------| 
E|----------------------------------------------------------| 

e|-----------7----------------------------------------------| 
B|---------8----10--7tr8---7tr8-----------------------------| 
G|----9--9--------------9------9--9s7-----7---9--9--7--9----| 
D|-------------------------------------5s7--7---------------| 
A|----------------------------------------------------------| 
E|----------------------------------------------------------| 

e|-----------7----------------------------------------------| 
B|---------8----10--7tr8-----8----8--8b10-------------------| 
G|----9--9--------------9--9---9--------------9--7--9-------| 
D|----------------------------------------------------------| 
A|----------------------------------------------------------| 
E|----------------------------------------------------------| 

e|-----------7----------------------------------------------| 
B|---------8----10--7tr8-7----------------------------------| 
G|----9--9-----------------9-7-9--9s7-----7---9-------------| 
D|-------------------------------------5s7--7---------------| 
A|----------------------------------------------------------| 
E|----------------------------------------------------------| 

e|----------------------------------------| 
B|----9----9s7s9----9s7s9--9--9s7----7----| 
G|----9----9s7s9----9s7s9--9--9s7----7----| 
D|----9----9s7s9----9s7s9--9--9s7----7----| x4 
A|----7----7s5s7----7s5s7--7--7s5----5----| 
E|----------------------------------------| 

e|----------------------------------------------------| 
B|----------------------------------------------------| 
G|-------------------7--------------------------------| 
D|---------------9-7---9-7-----------------5h7p5------| 
A|-------------------------------------5-7-------7----| 
E|----0-000-000-------------0-000-000-----------------| 
                                                       
e|----7--7----3---3s5--3--0------3--4--5--| 
B|----7--7----3---3s5--3--0------3--4--5--| 
G|----8--8----4---4s6--4--1------4--5--6--| 
D|----9--9----5---5s7--5--2------5--6--7--| x2 
A|----9--9----5---5s7--5--2------5--6--7--| 
E|----7--7----3---3s5--3--0------3--4--5--| 
      B  B    G   GsA  G  E      G  G# A 

Verse: 
e|----------------------------------------------------| 
B|----------------------------------------------------| 
G|-------------------7--------------------------------| 
D|---------------9-7---9-7-----------------5h7p5------| 
A|-------------------------------------5-7-------7----| 
E|----0-000-000-------------0-000-000-----------------| 

                                                   
e|----7--7----3---3s5--3--0---------------| 
B|----7--7----3---3s5--3--0---------------| 
G|----8--8----4---4s6--4--1------4--7--8--| 
D|----9--9----5---5s7--5--2------4--7--8--| x2 
A|----9--9----5---5s7--5--2------2--5--6--| 
E|----7--7----3---3s5--3--0---------------| 
      B  B    G   GsA  G  E      B  D  D# 

Break: 
e|----------------------------------|----------------------------------| 
B|----------------------------------|----------------------------------| 
G|----9--x--9-9--x--9-9--x-9-x-9----|----9--x--9-9--x--9-9--x-9-x-9----| 
D|----9--x--9-9--x--9-9--x-9-x-9----|----9--x--9-9--x--9-9--x-9-x-9----| 
A|----7--x--7-7--x--7-7--x-7-x-7----|----7--x--7-7--x--7-7--x-7-x-7----| 
E|----------------------------------|----------------------------------| 

e|----------------------------------|----------------------------------| 
B|----------------------------------|----------------------------------| 
G|----------------------------------|----------------------------------| 
D|----8--x--8-8--x--8-8--x-8-x-8----|----8--x--8-8--x--8-8--x-8-x-8----| 
A|----8--x--8-8--x--8-8--x-8-x-8----|----8--x--8-8--x--8-8--x-8-x-8----| 
E|----6--x--6-6--x--6-6--x-6-x-6----|----6--x--6-6--x--6-6--x-6-x-6----| 

e|----------------------------------|----------------------------------| 
B|----------------------------------|----------------------------------| 
G|----9--x--9-9--x--9-9--x-9-x-9----|----9--x--9-9--x--9-9--x-9-x-9----| 
D|----9--x--9-9--x--9-9--x-9-x-9----|----9--x--9-9--x--9-9--x-9-x-9----| 
A|----7--x--7-7--x--7-7--x-7-x-7----|----7--x--7-7--x--7-7--x-7-x-7----| 
E|----------------------------------|----------------------------------| 

e|----------------------------------|----------------------------------| 
B|----------------------------------|----------------------------------| 
G|----------------------------------|----12----12----11---10-----------| 
D|----8--x--8-8--x--8-8--x-8-x-8----|----12----12----11---10-----------| 
A|----8--x--8-8--x--8-8--x-8-x-8----|----10----10----9----8------------| 
E|----6--x--6-6--x--6-6--x-6-x-6----|----------------------------------| 

e|----------------------------------------------------| 
B|----------------------------------------------------| 
G|-------------------7--------------------------------| 
D|---------------9-7---9-7-----------------5h7p5------| 
A|-------------------------------------5-7-------7----| 
E|----0-000-000-------------0-000-000-----------------| 

                                                   
e|----7--7----3---3s5--3--0---------------| 
B|----7--7----3---3s5--3--0---------------| 
G|----8--8----4---4s6--4--1------4--7--8--| 
D|----9--9----5---5s7--5--2------4--7--8--| x2 
A|----9--9----5---5s7--5--2------2--5--6--| 
E|----7--7----3---3s5--3--0---------------| 
      B  B    G   GsA  G  E      B  D  D# 

Verse: 
e|----------------------------------------------------| 
B|----------------------------------------------------| 
G|-------------------7--------------------------------| 
D|---------------9-7---9-7-----------------5h7p5------| 
A|-------------------------------------5-7-------7----| 
E|----0-000-000-------------0-000-000-----------------| 

                                                   
e|----7--7----3---3s5--3--0---------------| 
B|----7--7----3---3s5--3--0---------------| 
G|----8--8----4---4s6--4--1------4--7--8--| 
D|----9--9----5---5s7--5--2------4--7--8--| x2 
A|----9--9----5---5s7--5--2------2--5--6--| 
E|----7--7----3---3s5--3--0---------------| 
      B  B    G   GsA  G  E      B  D  D# 

Break: 
e|----------------------------------|----------------------------------| 
B|----------------------------------|----------------------------------| 
G|----9--x--9-9--x--9-9--x-9-x-9----|----9--x--9-9--x--9-9--x-9-x-9----| 
D|----9--x--9-9--x--9-9--x-9-x-9----|----9--x--9-9--x--9-9--x-9-x-9----| 
A|----7--x--7-7--x--7-7--x-7-x-7----|----7--x--7-7--x--7-7--x-7-x-7----| 
E|----------------------------------|----------------------------------| 

e|----------------------------------|----------------------------------| 
B|----------------------------------|----------------------------------| 
G|----------------------------------|----------------------------------| 
D|----8--x--8-8--x--8-8--x-8-x-8----|----8--x--8-8--x--8-8--x-8-x-8----| 
A|----8--x--8-8--x--8-8--x-8-x-8----|----8--x--8-8--x--8-8--x-8-x-8----| 
E|----6--x--6-6--x--6-6--x-6-x-6----|----6--x--6-6--x--6-6--x-6-x-6----| 

e|----------------------------------|----------------------------------| 
B|----------------------------------|----------------------------------| 
G|----9--x--9-9--x--9-9--x-9-x-9----|----9--x--9-9--x--9-9--x-9-x-9----| 
D|----9--x--9-9--x--9-9--x-9-x-9----|----9--x--9-9--x--9-9--x-9-x-9----| 
A|----7--x--7-7--x--7-7--x-7-x-7----|----7--x--7-7--x--7-7--x-7-x-7----| 
E|----------------------------------|----------------------------------| 

e|----------------------------------|----------------------------------| 
B|----------------------------------|----------------------------------| 
G|----------------------------------|----12----12----11---10-----------| 
D|----8--x--8-8--x--8-8--x-8-x-8----|----12----12----11---10-----------| 
A|----8--x--8-8--x--8-8--x-8-x-8----|----10----10----9----8------------| 
E|----6--x--6-6--x--6-6--x-6-x-6----|----------------------------------| 

Solo/Outro: 
e|--------7-------------------------|----------------------------------| 
B|------8---10-7tr8-----------------|----------------------------------| 
G|----9-------------9s7s9-----------|----12----12----11---10-----------| 
D|----------------------------------|----12----12----11---10-----------| 
A|----------------------------------|----10----10----9----8------------| 
E|----------------------------------|----------------------------------| 

e|--------7-------------------------|----------------------------------| 
B|------8---10-7tr8---7tr8----------|----------------------------------| 
G|----9-------------9------9--------|----12----12----11---10-----------| 
D|----------------------------------|----12----12----11---10-----------| 
A|----------------------------------|----10----10----9----8------------| 
E|----------------------------------|----------------------------------| 

e|--------7--------------------------7-----7-10b12-10--7-7-------------------| 
B|------8---10-7tr8-------8-10b12-8--10b12---------------10b12-8-7tr8--------| 
G|----9-------------9s7s9---------------------------------------------9s7s9--| 
D|---------------------------------------------------------------------------| 
A|---------------------------------------------------------------------------| 
E|---------------------------------------------------------------------------| 

e|----------10-----------------------|--------------------------| 
B|----10b12----10b12--8--7tr8--8-8-8-|--------------------------| 
G|----------------------------9-9-9--|----12----12----11---10---| 
D|-----------------------------------|----12----12----11---10---| 
A|-----------------------------------|----10----10----9----8----| 
E|-----------------------------------|--------------------------| 


e|--------------------------| 
B|--------------------------| 
G|----12----12----11---10---| 
D|----12----12----11---10---| 
A|----10----10----9----8----| 
E|--------------------------| 

 
		  

Full key step upFull key step up
Half key step upHalf key step up
Half key step downHalf key step down
Full key step downFull key step down
hide glossary

See also:

tabs Ira! - Envelheço Na Cidade(Solo - Acustivo Mtv) tabs Deep Purple - No No No tabs Deep Purple - Black Night tabs Deep Purple - Smoke on the water(ver. 2) tabs Deep Purple - Since Youve Been Gone tabs Albert Hammond Jr - In My Room
e-chords

Other versions:

tabs Fuzz - Earthen Gate
auto scroll beats size up size down change color hide chords drawings
tab show chords e-chords YouTube Clip e-chords hide all tabs e-chords go to top tab

share