Furor Gallico

Banshee

Furor Gallico

tabs

by  ROBEPOIEL

save to print version add songbook text version e-mail correct tuner
chordsukulelecavacokeyboardtabbassdrumsharmonicaflute Guitar Pro
close

there isn't a video lesson for this song

chords

Banshee

	  		

Riff a 
D|------------------| 
A|------------------| 
F|------------------| 
C|----7~------------| 
G|-2~-5~-7~-5~-7~---| 
D|-0~----5~-3~-5~---| 

Riff b 
D|--------------------------------------------------------------------| 
A|--------------------------------------------------------------------| 
F|--------------------------------------------------------------------| 
C|--------------------------------------------------------------------| 
G|-77-777-99-77-1212-1010-9-77-777-99-55-1010-99-5--------------------| 
D|--------------------------------------------------------------------| 

Riff c 
D|--------------------------------------------------------------------| 
A|--------------------------------------------------------------------| 
F|--------------------------------------------------------------------| 
C|--------------------------------------------------------------------| 
G|-77-777-99-77-1212-1010-9-77-777-99-10101010-12121212---------------| 
D|--------------------------------------------------------------------| 

Riff d 
D|---------------------------------| 
A|---------------------------------| 
F|---------------------------------| 
C|---------------------------------| 
G|-10-10-10-10-7--9-9--------------| 
D|-8--8--8--8--5--7-7---0-0-2-3-0--| 

Riff e 
D|------------------------------------| 
A|------------------------------------| 
F|------------------------------------| 
C|------------------------------------| 
G|---10-10-10-10---12--2~-------------| 
D|---8--8--8--8----10--0~--0-000-000--| 

Riff f 
D|-------------------------------| 
A|-------------------------------| 
F|-------------------------------| 
C|-------------------------------| 
G|-5~--7~--9~--------------------| 
D|-3~--5~--7~--------------------| 

Riff g 
D|-----------------------------------------------| 
A|-----------------------------------------------| 
F|-----------------------------------------------| 
C|------------------------77-55-44-0-------------| 
G|-5---4-2-7---5-4-2-----------------------------| 
D|-3---2-0-5---3-2-0-----------------------------| 

Riff h 
D|-----------------------------------------------| 
A|-----------------------------------------------| 
F|-----------------------------------------------| 
C|------------------------00-44-55---------------| 
G|-5---4-2-7---5-4-2-----------------------------| 
D|-3---2-0-5---3-2-0-----------------------------| 

Riff i 
D|-----------------------------------------------| 
A|-----------------------------------------------| 
F|-----------------------------------------------| 
C|-----------------------------------------------| 
G|-5---4-2-7---5-7-9(9 times)--------------------| 
D|-3---2-0-5---3-5-7(9 times)--------------------| 

Riff l 
D|-----------------------------------------------| 
A|-----------------------------------------------| 
F|-----------------------------------------------| 
C|-----------------------------------------------| 
G|-9---7---2---5---7-----------------------------| 
D|-7---5---0---3---5-----------------------------| 

Riff m 
D|---------------------------------------------------------| 
A|---------------------------------------------------------| 
F|---------------------------------------------------------| 
C|---------------------------------------------------------| 
G|-2-44-22-55-44-77-55-99-77-1010-99-1212-1010-77-99-55-7--| 
D|---------------------------------------------------------| 
 
		  

See also:

tabs Deep Purple - Highway Star tabs Deep Purple - Smoke On The Water (Easy Intro) tabs Deep Purple - Space Truckin tabs Deep Purple - Rat Bat Blues tabs Deep Purple - Smoke On Water (ver. 2) tabs Deep Purple - Lazy
e-chords

Other versions:

tabs Furor Gallico - Banshee tabs Letlive - Banshee
auto scroll beats size up size down change color hide chords drawings
tab show chords e-chords YouTube Clip e-chords hide all tabs e-chords go to top tab

share