Fuel

Hemmorhage (ver. 2)

Fuel

tabs

save to print version add songbook text version e-mail correct tuner
chordsukulelecavacokeyboardtabbassdrumsharmonicaflute Guitar Pro
close

there isn't a video lesson for this song

chords

Hemmorhage (ver. 2)

	  		TABBED BY:   el sancco ([email protected]) 
 
So here it is, finished and accurate, or so i like to think!   
This is all my own work, so email me before you decide to put 
it on a site or claim credit for it or whatever.  Thanks! 
 
 
INTRO: - Chorus.  Distortion.  Slight Vibrato.  Start with feedback. 
------ 
 
| Bm    | Asus2 | Em    |       | 
 
 
 
VERSE 1: - Chorus.  Clean.  Let the notes ring. 
-------- 
 
Eb|------0---------0---------0---------0-----| 
Bb|-----3-3-------3-3-------3-3-------3-3----| 
Gb|----0---0-----0---0-----0---0-----0---0---| 
Db|---4-----4---4-----4---4-----4---4-----4--| 
Ab|-2---------0-------------------0----------| 
Eb|---------------------3--------------------| 
 
 
 
BRIDGE 1: - Chorus.  Clean. 
--------- 
 
| Em    | Dsus2 | A     | Asus4 | A     | 
| Em    | Dsus2 | A     | Asus4 | A     | 
 
 
 
CHORUS: - Chorus.  Distortion. 
------- 
 
| G     | D     | A     | F#m   | G     | D     | F#    | 
 
 
 
VERSE 2: - Chorus.  Clean.  Let the notes ring. 
-------- 
 
GUITAR1 
Eb|------0---------0---------0---------0-----| 
Bb|-----3-3-------3-3-------3-3-------3-3----| 
Gb|----0---0-----0---0-----0---0-----0---0---| 
Db|---4-----4---4-----4---4-----4---4-----4--| 
Ab|-2---------0-------------------0----------| 
Eb|---------------------3--------------------| 
 
GUITAR2 
| Bm    | A     | G     | A     | 
 
 
 
BRIDGE 2: - Distortion.  Chorus. 
--------- 
 
Notes in "()" are single notes on low "E" string  
 
          (G) (F#) Em   Dsus2   A   Asus4   A 
                   Em   Dsus2   F#m 
 
 
 
CHORUS: - Chorus.  Distortion. 
------- 
 
| G     | D     | A     | F#m   | G     | D     | F#    | 
 
 
 
PRE-SOLO: 
--------- 
 
E|----------------------------2-| 
B|----------------------------2-| 
G|----------------------------3-| 
D|--------------------2-4---4-4-| 
A|------2---2-4-5-4-5-----2-4-4-| 
E|--3-5---5---------------0-2-2-| 
 
 
 
SOLO: - Chorus.  Distortion.  Vibrato. 
----- 
 
| Bm    | A     | G     | A     | 
 
Eb|14----14----14-------------14----14----14----14-| 
Bb|---12----12----12-15-14-12----12----12----12----| 
Gb|------------------------------------------------| 
Db|------------------------------------------------| 
Ab|------------------------------------------------| 
Eb|------------------------------------------------| 
 
Eb|---12----12----14-------14-------14-------14----| 
Bb|10----10----15----15-14----14-12----12-14----14-| 
Gb|------------------------------------------------| 
Db|------------------------------------------------| 
Ab|------------------------------------------------| 
Eb|------------------------------------------------| 
 
Eb|---14----14-15-14-| 
Bb|15----17----------| 
Gb|------------------| 
Db|------------------| 
Ab|------------------| 
Eb|------------------| 
 
 
 
BRIDGE 2: - Distortion.  Chorus. 
--------- 
 
Notes in "()" are single notes on low "E" string  
 
          (G) (F#) Em   Dsus2   A   Asus4   A 
                   Em   Dsus2   F#m 
 
 
 
CHORUS: - Chorus.  Distortion. 
------- 
 
| G     | D     | A     | F#m   | 
 
| G     | D     | A     | F#m   | 
 
| G     | D     | A     | F#m   | 
                             
Eb|------------------| 
Bb|------------------| 
Gb|--6-7-6-7-6--6----| 
Db|------------7--7--| 
Ab|------------------| 
Eb|------------------| 
 
 
 
END: 
---- 
 
G   D   A (Let "A" chord ring) 
 
 
 
 
 
CHORDS: 
------- 
 
      Bm  Asus2  Em   Dsus2  A   Asus4  G    D   F#m   F# 
Eb|---2----0-----0----0------0----0-----3----2----2----2---| 
Bb|---3----0-----0----3------2----3-----3----3----2----2---| 
Gb|---4----2-----0----2------2----2-----0----2----2----3---| 
Db|---4----2-----2----0------2----2-----0----0----4----4---| 
Ab|---2----0-----2----x------0----0-----x----x----4----4---| 
Eb|---x----x-----0----x------x----x-----3----x----2----2---| 
 
 
 
--------------------------------------------- 
Transcribed By SANCCO ([email protected]) 
--------------------------------------------- 
 

		  

Full key step upFull key step up
Half key step upHalf key step up
Half key step downHalf key step down
Full key step downFull key step down
hide glossary

See also:

tabs Ben Howard - Promise tabs Alt-J - Breezeblocks tabs Arctic Monkeys - All My Own Stunts tabs Oasis - All around the world/intro tabs Faith no More - Easy tabs Oasis - Champagne Supernova (ver. 2)
e-chords

Other versions:

tabs Fuel - Hemmorhage tabs Fuel - Hemmorhage (ver. 2)
auto scroll beats size up size down change color hide chords drawings
tab show chords e-chords YouTube Clip e-chords hide all tabs e-chords go to top tab

share