Fucked Up

Police

Fucked Up

tabs

by  PAULLET3

save to print version add songbook text version e-mail correct tuner
chordsukulelecavacokeyboardtabbassdrumsharmonicaflute Guitar Pro
close

there isn't a video lesson for this song

chords

Police

	  		
standard tuning EADGBe 

intro 
e|---------------------------| 
B|---------------------------| 
G|---------------------------| 
D|---------------------------| 
A|-12-9-9-9-9-9-12-9-9-9-9-9-| 
E|---------------------------|x4 
pm==========================| 

2nd guitar enters 
|---------------------------|  |---------------------------| 
|---------------------------|  |---------------------------| 
|---------------------------|  |---------------------------| 
|-99------------------------|  |999999999999999999999999999| 
|-99------------------------|  |999999999999999999999999999| 
|-77------------------------|x4|777777777777777777777777777|x4 

verse riff (both guitars) 
e|---------------------------| 
B|---------------------------| 
G|---------------------------|  
D|999912-12-999912-12--------| 
A|999912-12-999912-12--------| 
E|777710-10-777710-10--------| 

variations on this come up occasionally 
e|---------------------------| 
B|-7--5-5--7--5-5--7-5-5-----| 
G|---------------------------| 
D|---------------------------| 
A|---------------------------| 
E|---------------------------| 
slight bend on the string 

Chorus riff 
e|---------------------------||---------------------------| 
B|---------------------------||---------------------------| 
G|-9-999---------------------||---------------------------| 
D|-9-9999--9-9-9-9-9-9-9-9-9-||-12-121212--9-9-9-9-9-9-9-9| 
A|-7-7779--9-9-9-9-9-9-9-9-9-||-12-121212--9-9-9-9-9-9-9-9| 
E|------7--7-7-7-7-7-7-7-7-7-||-10-101010--7-7-7-7-7-7-7-7| 

solo is basically just a variation on the intro riff 

ending 
e|---------------------------| 
B|---------------------------| 
G|---------------------------| 
D|999999999999999999999999999| 
A|999999999999999999999999999| 
E|777777777777777777777777777| 

************************************ 

| /   slide up 
| \   slide down 
| h   hammer-on 
| p   pull-off 
| ~   vibrato 
| +   harmonic 
| x   Mute note 
| b   Bend 
| pb  Pre-bend 
| br  Bend release 
| pbr Pre-bend release 
| brb Bend release bend 

************************************ 
		  

See also:

tabs Three Days Grace - I Hate Everything About You (ver. 2) tabs Avril Lavigne - Girlfriend tabs Rush - Working Man tabs Avril Lavigne - Don't Tell Me tabs Rush - Spirit Of Radio tabs Three Days Grace - Burn
e-chords

Other versions:

tabs Fucked Up - Police tabs Soundtracks - Police Academy Theme tabs The Casualties - POLICE BRUTALITY tabs Urban Waste - Police Brutality tabs Red Hot Chili Peppers - Police Helicopter tabs The Clash - Police On My Back
auto scroll beats size up size down change color hide chords drawings
tab show chords e-chords YouTube Clip e-chords hide all tabs e-chords go to top tab

share