From Indian Lakes

Runner (acoustic)

From Indian Lakes

tabs

by  EDSOOLIVEIRA

save to print version add songbook text version e-mail correct tuner
chordsukulelecavacokeyboardtabbassdrumsharmonicaflute Guitar Pro
close

there isn't a video lesson for this song

chords

Runner (acoustic)

	  		 

Tuning: standard  
 

  Intro: x2 
e|-----------------------------------------------------------| 
B|-------------------------------------------0---------------| 
G|------0-----0-----0-----0-----0------0-----------0-----0---| 
D|----2-----2-----2-----2-----2------4-----4-----4-----4-----| 
A|--3-----3-----3-----3-----3-----/5-----5-----5-----5-------| 
E|-----------------------------------------------------------| 

  VERSE x2 
e|----------------------------------------------------------------------------------------------------------| 
B|-------------------------------------------0---------------x2-----------0---------------------------------| 
G|------0-----0-----0-----0-----0------0-----------0-----0----------0-----------0-----0-----0-----0-----0---| 
D|----2-----2-----2-----2-----2------4-----4-----4-----4----------2-----2-----2-----2-----2-----4-----0-----| 
A|--3-----3-----3-----3-----3-----/5-----5-----5-----5----------0-----0-----0-----0-----0-----5-----0-------| 
E|----------------------------------------------------------------------------------------------------------| 

  Chorus 
e|------0-----------3-----0---------x2---------------------------------------| 
B|------------0-----------------0------------------x4------------------------| 
G|-----------------------------------------0---------------------------------| 
D|----2-----2-----2-----2-----2-----------------0----------------------------| 
A|--3-----3-----3-----3-----3------------2----2------------------------------| 
E|-------------------------------------3----3--------------------------------| 

e|------0-----------3-----0---------x2---------------------------------------| 
B|------------0-----------------0------------------x4------------------------| 
G|-----------------------------------------0--------------0------------------| 
D|----2-----2-----2-----2-----2-----------------0-------2--------------------| 
A|--3-----3-----3-----3-----3------------2----2-------0----------------------| 
E|-------------------------------------3----3--------------------------------| 

Verse: 
When you're old enough 
When you've been through it 
You won't know what it's like 
You can't see things the same 
But you're closer now 

Verse: 
Did you close your eyes? 
Did I close them first? 
You weren't strong enough 
I'm no stronger than you 
But the years take their toll on us all 

Chorus: 
I'm starting to see why you drifted away after all 
And no one explains to you 
Where the things go that you love 
'Till they're already gone 

(play INTRO as interlude) 

Verse: 
You held on for us 
The house gathered dust 
We were selfish then 
And we held on to things 
But they're all gone now 

Verse: 
Did I take too long? 
Did I ask too much? 
I didn't love you as much as I could 
The silence is killing me now 

Chorus: 
I'm starting to see why you drifted away after all 
And no one explains to you 
Where the things go that you love 
How many times will I try to pretend that you're here? 
And I had a few questions I never got to ask you in time 
'Cause you'd already gone 

SOLO (if anyone can work this out or you can just play the VERSE tab) 

************************************ 

| /   slide up 
| \   slide down 
| h   hammer-on 
| p   pull-off 
| ~   vibrato 
| +   harmonic 
| x   Mute note 
| b   Bend 
| pb  Pre-bend 
| br  Bend release 
| pbr Pre-bend release 
| brb Bend release bend 

************************************ 
		  

See also:

tabs The Drills - Beautiful Apartment tabs Nina Nesbitt - Babylon tabs Daughter - All I Wanted tabs Daughter - Your Kisses tabs From Indian Lakes - I Don't Know You tabs Daughter - Amsterdam
e-chords

Other versions:

tabs Kings of Leon - Runner tabs From Indian Lakes - Runner (acoustic)
auto scroll beats size up size down change color hide chords drawings
tab show chords e-chords YouTube Clip e-chords hide all tabs e-chords go to top tab

share