From Indian Lakes

Paintings

From Indian Lakes

tabs

by  JOV-CORREA

save to print version add songbook text version e-mail correct tuner
chordsukulelecavacokeyboardtabbassdrumsharmonicaflute Guitar Pro
close

there isn't a video lesson for this song

chords

Paintings

	  		
  intro 
e|----------------------| 
B|--------------x4------| 
G|----------------------| 
D|---3---5--3-----------| 
A|-5---5----------------| 
E|----------------------| 

  verse 
e|---------------------------------------------------------------------------| 
B|--------------x4---------------x2---------------x2-------------------------| 
G|---------------------------------------------------------------------------| 
D|---3---5--3---------------5-----------------2------------------------------| 
A|-5---5----------------5-----5-----------3-----3----------------------------| 
E|--------------------3---3-------------1---1--------------------------------| 

e|------------------------------------------------------------------------------| 
B|------------------------------------------------------------------------------| 
G|----5-------------------------------------------------------------------------| 
D|----3----5-----2--------------------------------------------------------------| 
A|----5----5-----3--------------------------------------------------------------| 
E|---------3-----1--------------------------------------------------------------| 

to be continued 
you can guess the rest of the song from this :) 


************************************ 

| /   slide up 
| \   slide down 
| h   hammer-on 
| p   pull-off 
| ~   vibrato 
| +   harmonic 
| x   Mute note 
| b   Bend 
| pb  Pre-bend 
| br  Bend release 
| pbr Pre-bend release 
| brb Bend release bend 

************************************ 
		  

See also:

tabs The Drills - Beautiful Apartment tabs Nina Nesbitt - Babylon tabs Daughter - All I Wanted tabs Daughter - Your Kisses tabs From Indian Lakes - I Don't Know You tabs Daughter - Amsterdam
e-chords

Other versions:

tabs From Indian Lakes - Paintings
auto scroll beats size up size down change color hide chords drawings
tab show chords e-chords YouTube Clip e-chords hide all tabs e-chords go to top tab

share