From Indian Lakes

Our Father Is Missing

From Indian Lakes

tabs

by  FERNSANTANA

save to print version add songbook text version e-mail correct tuner
chordsukulelecavacokeyboardtabbassdrumsharmonicaflute Guitar Pro
close

there isn't a video lesson for this song

chords

Our Father Is Missing

	  		

0:01 
Piano Intro 
e|--------9------9------9--------------12----9-----| 
B|----10-----10-------------10-----10------------10| 
G|-11-----11-----11-----11------9------------------| 
D|------------------------------7------------------| 
A|-9-----------------------------------------------| 
E|-------------------------------------------------| 

e|----------------9-----9------------------5~------| 
B|------------10-----10----10---------7---7--------| 
G|---11----11-----11----11-----7~---7----------7---| 
D|--11-------------------------4-------------------| 
A|-9---------------------------5~------------------| 
E|-------------------------------------------------| 

e|----------9------9------9---------------9---12-------| 
B|----(10)-----10-----10-----10-------10-----------10--| 
G|-11-------11-----11-----11-----9---9-----------------| 
D|-------------------------------7---------------------| 
A|-9---------------------------------------------------| 
E|-----------------------------------------------------| 

e|------9------9------9----------------5--| 
B|---------10-----10-----10------------7--| 
G|-11---11-----11-----11------7----7------| 
D|----------------------------4-----------| 
A|-9--------------------------5-----------| 
E|----------------------------------------| 

0:31 
e|-----------------------------| 
B|-----------------------------| 
G|-9---9-9--        -9---------| 
D|-11--1111- Repeat -11--7~----| 
A|-9---9-9--        -9---7~----| 
E|-----------------------------| 

0:38 
e|-------------------------------------------------------4~-------| 
B|-------5~---------------9~--------------5~-----------5----5-----| 
G|---6------6---------9------9--------6------6---6---6--------6~--| 
D|-4---4------4/7-(7)---7------7/4-(4)--4------4---4--------------| 
A|----------------------------------------------------------------| 
E|----------------------------------------------------------------| 

e|-------------------------------------------------------4---------| 
B|-------5~---------------9~--------------5~-----------------5-----| 
G|---6------6---------9------9--------6------6---6---6-----------6-| 
D|-4---4------4/7-(7)---7------7/4-(4)--4------4---0---0---0---0---| 
A|-----------------------------------------------------------------| 
E|-----------------------------------------------------------------| 


0:53 
Guitar 1 
e|----------------------------------| 
B|-------5~---------------9~--------| 
G|---6------6---------9------9------|x4 
D|-4---4------4/7-(7)---7------7/4--| 
A|----------------------------------| 
E|----------------------------------|      
Guitar 2            
e|---------------------------------------------------------------------------| 
B|-----------------------10~------------------------------------10/12~-------| 
G|-11~-----------------------------------------11~---------------------------|x2 
D|---------------------------------------------------------------------------| 
A|---------------------------------------------------------------------------| 
E|---------------------------------------------------------------------------| 

1:09 
Guitar 1 
e|----------9----------------------------------------------------------------| 
B|-10-------10------------------9--------------------------------------------| 
G|-11----------------9----------9--------------------------------------------| 
D|-------------------11------------------------------------------------------| 
A|---------------------------------------------------------------------------| 
E|---------------------------------------------------------------------------|  
Guitar 2                                                                     |x3 
e|---------------------------------------------------------------------------| 
B|-14~------10~----------------10/12~----------------------------------------| 
G|-------------------11~-----------------------------------------------------| 
D|---------------------------------------------------------------------------| 
A|---------------------------------------------------------------------------| 
E|---------------------------------------------------------------------------| 

1:31 
e|---------------------------------------------------------------------------| 
B|--------10~--------------------14~-----------------5~--------------9~------| 
G|---11-------11-----------14--------14----------6------6---------9~---------| 
D|-9----9--------9/12-(12)----12--------12/4-(4)---4------4/7-(7)------------| 
A|---------------------------------------------------------------------------| 
E|---------------------------------------------------------------------------| 

1:38 
Guitar 1 
e|-----------------------------------------| 
B|-5-5----55--------9-9-----99--99-9-------| 
G|-6-6----66--------9-9-----99--99-9-------| 
D|-4-4----44--------7-7-----77--77-7-------| 
A|-----------------------------------------| 
E|-----------------------------------------| 
Guitar 2                                    x2 
e|-----------------------------------------| 
B|-17-17~\--10-10~/--14-14~--14/12 12~/----| 
G|-----------------------------------------| 
D|-----------------------------------------| 
A|-----------------------------------------| 
E|-----------------------------------------| 

1:54 
Guitar 1 
e|---------------------------------------------------| 
B|-5-5----55---------------9-9-----99--99-9----------| 
G|-6-6----66---------------9-9-----99--99-9----------| 
D|-4-4----44---------------7-7-----77--77-7----------| 
A|---------------------------------------------------| 
E|---------------------------------------------------| 
Guitar 2                                              x2 
e|-14-14-14-14-12-12-16-16-14-14-14-14---------------| 
B|-------------------------------------12-12/14-14---| 
G|---------------------------------------------------| 
D|---------------------------------------------------| 
A|---------------------------------------------------| 
E|---------------------------------------------------| 

     
2:10                                                                                
e|--------------------------------------------------| 
B|-10-10-10-12-12-12-14\---10-10-10-12-12-12-14\----| 
G|--------------------------------------------------| 
D|--------------------------------------------------| 
A|--------------------------------------------------| 
E|--------------------------------------------------| 
                                                     x2 
e|----------------------17--------------------------| 
B|--------------------------------------------------| 
G|----14----14----14----------14----14----14----14--| 
D|-16----16----16----16----16----16----16----16-----| 
A|--------------------------------------------------| 
E|--------------------------------------------------| 

e|--------------------------------------------------| 
B|-------------------------10-10-10-12-12-12-14\----| 
G|--------------------------------------------------| 
D|--------------------------------------------------| 
A|--------------------------------------------------| 
E|--------------------------------------------------| 
                     
e|----------------------17--------------------------| 
B|--------------------------------------------------| 
G|----14----14----14----------14----14----14----14--| 
D|-16----16----16----16----16----16----16----16-----| 
A|--------------------------------------------------| 
E|--------------------------------------------------| 

2:33 
e|-------------------------------------------| 
B|-------------------------------------------| 
G|-------------7~----------------------------| 
D|---------7------7----------4---------7~----| 
A|-2~--2/5---5------5\---4-------4-----7~----| 
E|---------------------2---2---2---2/5-------| 

2:40 
e|------------------------------------------------------------------------------| 
B|--------------------------------------------------------9~--------------------| 
G|-9--9-9--      9--9-----------------9----9-11---------9-----9--9-9-      --9~-| 
D|-7--7-7--repeat7--7-----------11------11------11-9-11-------7--7-7-repeat--7~-| 
A|-9--9-9--      9--9--------------12-------------------------9--9-9-      --9~-| 
E|------------------------------------------------------------------------------| 

2:55 
Guitar 1 
e|------------------------------------| 
B|------------------------------------| 
G|-11---------------------------------| 
D|-11-x16-----------------------------| 
A|-9----------------------------------| 
E|------------------------------------| 
Guitar 2 
e|-------------------------4----------| 
B|-------5---5-7-------5-----5---5----| 
G|---6-----6-----6-4-6---6-----6-6----| 
D|-----7------------------------------| 
A|------------------------------------| 
E|------------------------------------| 

Guitar 1 
e|----------------------------------------------| 
B|----------------------------------------------| 
G|-9--------------------------------------------| 
D|-9-x15----------------------------------------| 
A|-7--------------------------------------------| 
E|----------------------------------------------| 
Guitar 2 
e|---------------------9-12-9-------9-----------| 
B|----7--------9----12--------10------10--------| 
G|-/9---9-6-/9---11--------------11------11\----| 
D|----------------------------------------------| 
A|----------------------------------------------| 
E|----------------------------------------------|                        

Guitar 1 
e|----------------------------------------------| 
B|----------------------------------------------| 
G|-7~---------------------7~--------------------| 
D|-7~---------------------7~--------------------| 
A|-5~---------------------5~--------------------| 
E|----------------------------------------------| 
Guitar 2                                 
e|----------------------------------------------| 
B|-----------------5~---------------------5~----| 
G|----------6------6~--------------6------6~----| 
D|----4/7\4---7----7~--------4/7\4---7----7~----| 
A|----------------------------------------------| 
E|----------------------------------------------| 
Repeat last three bars 

3:25 
Guitar 1 
e|--------------------------------------------------------------------------------| 
B|--------------------------------------------------------------------------------| 
G|----------------------7------------------9-----------------7--------------------| 
D|----------------------7x15---------------7x15--------------7x15-----------------| 
A|-7x15-----------------5------------------9-----------------5--------------------| 
E|-5------------------------------------------------------------------------------| 
Guitar 2  
e|---------------------------------------------------------------------------------| 
B|---------------------------------------------------------------------------------| 
G|-14-13\-9~-------------------------------14-13\-9~-------------------------------| 
D|-----------9/11~---7p6-6/7-9-7-9/11-11~------------9/11~---7p6-6/7-9-7-9/11-11~--| 
A|---------------------------------------------------------------------------------| 
E|---------------------------------------------------------------------------------| 

Guitar 1 
e|-----------------------------------------------------------------------------------| 
B|-----------------------------------------------------------------------------------| 
G|------------------7--------------------9-----------------7-------------------------| 
D|------------------7x15-----------------7x15--------------7x15--------------------7~| 
A|-7x15-------------5--------------------9-----------------5-----------------------7~| 
E|-5-------------------------------------------------------------------------------5~| 
Guitar 2 
e|-----------------------------------------------------------------------------------| 
B|14~-12~-17/14-14~----------------------/14~-12~-17/14-14~--------------------------| 
G|------------------13h14p13-14/16p14-14~------------------13h14p13-14/16p14-16/18-18~ 
D|-----------------------------------------------------------------------------------| 
A|-----------------------------------------------------------------------------------| 
E|-----------------------------------------------------------------------------------| 

************************************ 

| /   slide up 
| \   slide down 
| h   hammer-on 
| p   pull-off 
| ~   vibrato 
| +   harmonic 
| x   Mute note 
| b   Bend 

************************************ 
		  

See also:

tabs Daughter - Tomorrow tabs Seahaven - Save Me tabs From Indian Lakes - Sleeping Limbs (acoustic) tabs Imaginary Friend - Wherever You Go tabs Mixtapes - Soups Whatever tabs John Smith - There Is A Stone
e-chords

Other versions:

tabs From Indian Lakes - Our Father Is Missing
auto scroll beats size up size down change color hide chords drawings
tab show chords e-chords YouTube Clip e-chords hide all tabs e-chords go to top tab

share