From Indian Lakes

I Am Aware

From Indian Lakes

tabs

by  HUGO_RODRIGUES

save to print version add songbook text version e-mail correct tuner
chordsukulelecavacokeyboardtabbassdrumsharmonicaflute Guitar Pro
close

there isn't a video lesson for this song

chords

I Am Aware

	  		
INTRO 
e|---------------------------------------------------------------------------| 
B|---------------------------------------------------------------------------| 
G|--5--5--4------------------------------------------------------------------| 
D|--5--5--5--3--5------------------------------------------------------------| 
A|--3--0--0--3--5------------------------------------------------------------| 
E|-----------1--3------------------------------------------------------------| 

verse 1 (The world was once in my hands...) 
e|---------------------------------------------------------------------------| 
B|---------------------------------------------------------------------------| 
G|--5--5--4--------5--5--4---------------------------------------------------| 
D|--5--5--5--3--5--5--5--5--3--5---------------------------------------------| 
A|--3--0--0--3--5--3--0--0--3--5---------------------------------------------| 
E|-----------1--3-----------1--3---------------------------------------------| 

(Where were you...) 
e|---------------------------------------------------------------------------| 
B|---------------------------------------------------------------------------| 
G|---------------------------------------------------------------------------| 
D|--7--5--7--3--5--7--5--7--3--5---------------------------------------------| 
A|--7--5--7--3--5--7--5--7--3--5---------------------------------------------| 
E|--5--3--5--1--3--5--3--5--1--3---------------------------------------------| 

Instrumental 
e|---------------------------------------------------------------------------| 
B|---------------------------------------------------------------------------| 
G|--5------------------------------------------------------------------------| 
D|--5--5--3--7--3--5---------------------------------------------------------| 
A|--3--5--3--7--3--5---------------------------------------------------------| 
E|-----3--1--5--1--3---------------------------------------------------------| 

verse 2 (How could I not see you...) 
e|---------------------------------------------------------------------------| 
B|---------------------------------------------------------------------------| 
G|---------------------------------------------------------------------------| 
D|--7--5--7--3--5--7--5--7--3--5---------------------------------------------| 
A|--7--5--7--3--5--7--5--7--3--5---------------------------------------------| 
E|--5--3--5--1--3--5--3--5--1--3---------------------------------------------| 

verse 3 (My life was once in my hands...) 
e|---------------------------------------------------------------------------| 
B|---------------------------------------------------------------------------| 
G|--5--5--4--------5--5--4---------------------------------------------------| 
D|--5--5--5--3--5--5--5--5--3--5---------------------------------------------| 
A|--3--0--0--3--5--3--0--0--3--5---------------------------------------------| 
E|-----------1--3-----------1--3---------------------------------------------| 

(Where were you...) 
e|---------------------------------------------------------------------------| 
B|---------------------------------------------------------------------------| 
G|---------------------------------------------------------------------------| 
D|--7--5--7--3--5--7--5--7--3--5---------------------------------------------| 
A|--7--5--7--3--5--7--5--7--3--5---------------------------------------------| 
E|--5--3--5--1--3--5--3--5--1--3---------------------------------------------| 

verse 4 (Have I been stuck here...) 
e|---------------------------------------------------------------------------| 
B|---------------------------------------------------------------------------| 
G|--5-----------------5-----------------5------------------------------------| 
D|--5--5--3--7--3--5--5--5--3--7--3--5--5------------------------------------| 
A|--3--5--3--7--3--5--3--5--3--7--3--5--3------------------------------------| 
E|-----3--1--5--1--3-----3--1--5--1--3---------------------------------------|  
		  

See also:

tabs Keaton Henson - Friends tabs Daughter - Tomorrow tabs Seahaven - Fifty-four tabs Imaginary Friend - Wherever You Go tabs The Drills - You're Not Happy Till I'm Not Happy tabs Daughter - Youth
e-chords

Other versions:

tabs From Indian Lakes - I Am Aware
auto scroll beats size up size down change color hide chords drawings
tab show chords e-chords YouTube Clip e-chords hide all tabs e-chords go to top tab

share