From First To Last

When Flying Feels Like Falling

From First To Last

tabs

by  TARIKIKE

save to print version add songbook text version e-mail correct tuner
chordsukulelecavacokeyboardtabbassdrumsharmonicaflute Guitar Pro
close

there isn't a video lesson for this song

chords

When Flying Feels Like Falling

	  		x 2 
E |--------------------------------------------------------------------------------------------| 
B |--------------------------------------------------------------------------------------------| 
G |-12-12-12-12-12-12-12-11-11-12-12-11-11-12-12--12-12-12-12-12-12-12-11-11-12-12-14-14-12-12-| 
D |--------------------------------------------------------------------------------------------| 
A |-10-10-10-10-10-10-10-9--9--10-10-9--9--10-10--10-10-10-10-10-10-10-9--9--10-10-12-12-10-10-| 
D |--------------------------------------------------------------------------------------------| 

x 4 
E |------------------------------------------------------------5-6-5-0---| 
B |----------------------------------------------------------------------| 
G |----------------------------------------------------------------------| 
D |-10---X-10---X-10---X-10---X-10-X-10-5---X-5---X-5---X-5--------------| 
A |-10---X-10---X-10---X-10---X-10-X-10-5---X-5---X-5---X-5--------------| 
D |-10---X-10---X-10---X-10---X-10-X-10-5---X-5---X-5---X-5--------------| 

 x 3 
E |---------------------------------------------------| 
B |---------------------------------------------------| 
G |---------------------------------------------------| 
D |-7-7-7-7-7-7-7-9-10---10-10-10-/12-------\10-------| 
A |-7-7-7-7-7-7-7-9-10---10-10-10-/12-------\10-------| 
D |-7-7-7-7-7-7-7-9-10---10-10-10-/12-------\10-------| 

E |-------------------------------------------------------------------------| 
B |-------------------------------------------------------------------------| 
G |-------------------------------------------------------------------------| 
D |-12-12-12-12-12-12-12-12-12-12-12-12-12-12-12-12-10-10-12-12-10-10-12-12-| 
A |-12-12-12-12-12-12-12-12-12-12-12-12-12-12-12-12-10-10-12-12-10-10-12-12-| 
D |-12-12-12-12-12-12-12-12-12-12-12-12-12-12-12-12-10-10-12-12-10-10-12-12-| 

x 2 
E |--------------------------------------------------------------------------------------------| 
B |--------------------------------------------------------------------------------------------| 
G |-12-12-12-12-12-12-12-11-11-12-12-11-11-12-12--12-12-12-12-12-12-12-11-11-12-12-14-14-12-12-| 
D |--------------------------------------------------------------------------------------------| 
A |-10-10-10-10-10-10-10-9--9--10-10-9--9--10-10--10-10-10-10-10-10-10-9--9--10-10-12-12-10-10-| 
D |--------------------------------------------------------------------------------------------| 

x 2 
E |------------------------------------------------------------5-6-5-0---| 
B |----------------------------------------------------------------------| 
G |----------------------------------------------------------------------| 
D |-10---X-10---X-10---X-10---X-10-X-10-5---X-5---X-5---X-5--------------| 
A |-10---X-10---X-10---X-10---X-10-X-10-5---X-5---X-5---X-5--------------| 
D |-10---X-10---X-10---X-10---X-10-X-10-5---X-5---X-5---X-5--------------| 

x 2 
E |-------------------------------------------------------------------| 
B |-------------------------------------------------------------------| 
G |-------------------------------------------------------------------| 
D |-10---X-10---X-10---X-10---X-10-X-10-5---X-5---X-5---X-5---X-5-X-5-| 
A |-10---X-10---X-10---X-10---X-10-X-10-5---X-5---X-5---X-5---X-5-X-5-| 
D |-10---X-10---X-10---X-10---X-10-X-10-5---X-5---X-5---X-5---X-5-X-5-| 

x 3 
E |---------------------------------------------------| 
B |---------------------------------------------------| 
G |---------------------------------------------------| 
D |-7-7-7-7-7-7-7-9-10---10-10-10-/12-------\10-------| 
A |-7-7-7-7-7-7-7-9-10---10-10-10-/12-------\10-------| 
D |-7-7-7-7-7-7-7-9-10---10-10-10-/12-------\10-------| 

E |-------------------------------------------------------------------------| 
B |-------------------------------------------------------------------------| 
G |-------------------------------------------------------------------------| 
D |-12-12-12-12-12-12-12-12-12-12-12-12-12-12-12-12-10-10-12-12-10-10-12-12-| 
A |-12-12-12-12-12-12-12-12-12-12-12-12-12-12-12-12-10-10-12-12-10-10-12-12-| 
D |-12-12-12-12-12-12-12-12-12-12-12-12-12-12-12-12-10-10-12-12-10-10-12-12-| 

x 4 
E |-------------------------------------------------------------------| 
B |-------------------------------------------------------------------| 
G |-------------------------------------5-5-5-------5-5-5-------5-5-5-| 
D |-2-2-2-------2-2-2-------2-2-2-------5-5-5-------5-5-5-------5-5-5-| 
A |-2-2-2-------2-2-2-------2-2-2-------3-3-3-------3-3-3-------3-3-3-| 
D |-2-2-2-------2-2-2-------2-2-2-------------------------------------| 

x 3 
E |-12--------------------------------------------------------------------| 
B |-----------13----12----13-13-13-13-13-13-15-15-15-15-15-15-13-13-13-13-| 
G |-----------------------------------------------------------------------| 
D |-----------------------------------------------------------------------| 
A |-----------------------------------------------------------------------| 
D |-----------------------------------------------------------------------| 

E |-12--------------------------------------------------------------------| 
B |-----------13----12----13----------------------------------------------| 
G |-----------------------------------------------------------------------| 
D |-----------------------------------------------------------------------| 
A |-----------------------------------------------------------------------| 
D |-----------------------------------------------------------------------| 

pick slide 

E |-----------------| 
B |-----------------| 
G |-----------------| 
D |-5-5-5-4-4-4-4-4-| 
A |-5-5-5-4-4-4-4-4-| 
D |-5-5-5-4-4-4-4-4-| 

x 6 
E |-------------------------------------------------------------------| 
B |-------------------------------------------------------------------|  
G |-------------------------------------5-5-5-------5-5-5-------5-5-5-| 
D |-2-2-2-------2-2-2-------2-2-2-------5-5-5-------5-5-5-------5-5-5-|  
A |-2-2-2-------2-2-2-------2-2-2-------3-3-3-------3-3-3-------3-3-3-|    
D |-2-2-2-------2-2-2-------2-2-2-------------------------------------|     

E |-------------------------------------------------------------| 
B |-------------------------------------------------------------| 
G |-------------------------------------------------------------| 
D |-2-----------------------------------------------------------| 
A |-2-----------------------------------------------------------| 
D |-2-----------------------------------------------------------| 
		  

Full key step upFull key step up
Half key step upHalf key step up
Half key step downHalf key step down
Full key step downFull key step down
hide glossary

See also:

tabs System Of A Down - A.T.W.A tabs System Of A Down - Kill Rock N Roll tabs System Of A Down - Psycho tabs Linkin Park - Breaking the Habit tabs Linkin Park - Numb tabs Linkin Park - Breaking the habit(solo)
e-chords

Other versions:

tabs From First To Last - When Flying Feels Like Falling
auto scroll beats size up size down change color hide chords drawings
tab show chords e-chords YouTube Clip e-chords hide all tabs e-chords go to top tab

share