From First To Last

Emily ver. 2

From First To Last

tabs Advanced advanced

by  HELENA_2892

save to print version add songbook text version e-mail correct tuner
chordsukulelecavacokeyboardtabbassdrumsharmonicaflute Guitar Pro
close

there isn't a video lesson for this song

chords

Emily ver. 2

	  		Tuning: both Guitars Standard tuning 
Guitar 1 Intro repeat until the verse 
e|--------------------------------------------------------------------------| 
B|-----------0--------------0-------------0---------------------------------| 
G|-------------0--------------0-------------0-------------------------------| 
D|-------5--------------9-------------7-------------------------------------| 
A|---3-3---3--------7-7---7-------5-5---5-----------------------------------| 
E|--------------------------------------------------------------------------| 
Guitar 2 Intro 
e|--------------------------------------------------------------------------| 
B|----------0-------------0----------------------------0-------*12----------| 
G|------------0-------------0------------7---------------0--------*12-------| 
D|------5-------------5------------4-------4-------5------------------------| 
A---3-3---3------7-7----7------5-5---5---------3-3---3----------------------| 
E|--------------------------------------------------------------------------| 
Guitar 2 after the harmonics, repeat the rest of the into and then this solo 
e|--------------------------------------------------------------------------| 
B|--------------------------------------------------------------------------| 
G|---------7-----7------7/9-7--5-4----7-5-4-5-4-2/4-2------7-----7-----7/9--| 
D-----4-5----4-5----4-5------------5-------------------4-5---4-5---4-5------| 
A|--------------------------------------------------------------------------| 
E|--------------------------------------------------------------------------| 

e|--------------------------------------------------------------------------| 
B|-----7/8-8-8-7-7-7-8-8-8/10-10-10-8-8-8-7-7-------------------------------| 
G|-7------------------------------------------------------------------------| 
D|--------------------------------------------------------------------------| 
A|--------------------------------------------------------------------------| 
E|--------------------------------------------------------------------------| 
Guitar 1 Verse  strumming similar to intro 
e|--------------------------------------------------------------------------| 
B|-----0----0----0----------------------------------------------------------| 
G|-----0----0----0----------------------------------------------------------| 
D|---5-5--9-9--7-7----------------------------------------------------------| 
A|---3-3--7-7--5-5----------------------------------------------------------| 
E|--------------------------------------------------------------------------| 
Guitar2 Verse 
e|---------------------------------------------------------------------------| 
B|----------0----------------0-------------------0---------------------------| 
G|------------0----------------0-------------------0--------------0----------| 
D|------5---------5-----5-----------5-------5-----------4----4------4--------| 
A|--3-3---3-----3-----3---3-------3-----7-7---7-------5----5----5------------| 
E|---------------------------------------------------------------------------| 

e|---------------------------------------------------------------------------| 
B|---------------------------------------------------------------------------| 
G|---7-5-4h5p4---------------------------------------------------------------| 
D|---------------------------------------------------------------------------| 
A|---------------------------------------------------------------------------| 
E|---------------------------------------------------------------------------| 

e|-----0---0--0--0---0-------0--0--0----0---0--0-------0-0-------------------| 
B|-----0-0-0--0--0---0-------0--0--0----0---0--0-0-----0-0-------------------| 
G|-----0-0-0--0--0---0-------0--0--0--0-0---0--0-0-----0-0-------------------| 
D|--9--9-7-7-12-12-12-12-12-12-12-12--9-9-7-7--5-5-5-5-5-5-------------------| 
A|--7--0-5-0-10-10-10-10-10-10-10-10--7-0-5-0--3-3-3-3-3-3-------------------| 
E|--0--0---0--------------------------0-0---0--------------------------------| 
Play the Chorus twice and after all that do this  both guitars 
e|--------------------------------------------------------------------------| 
B|--0---0---0---------------------------------------------------------------| 
G|--0-0-0-0-0---------------------------------------------------------------| 
D|--5-5-5-5-4---------------------------------------------------------------| 
A|--3-3-3-3-5---------------------------------------------------------------| 
E|--------------------------------------------------------------------------| 
Then repeat intro verse and Chorus and end the song with 
e|--------------------------------------------------------------------------| 
B|-----------0--------------------------------------------------------------| 
G|-------------0------------------------------------------------------------| 
D|------5-------------------------------------------------------------------| 
A|--3-3---3-----------------------------------------------------------------| 

		  

See also:

tabs Evanescence - Broken tabs Linkin Park - Points Of Authority tabs System Of A Down - Lonely Day (intro) tabs Linkin Park - A Place For My Head tabs Linkin Park - A Place For My Head (ver. 2) tabs System Of A Down - A.D.D.
e-chords

Other versions:

tabs Feeder - Emily (ver. 2) tabs From First To Last - Emily ver. 2
auto scroll beats size up size down change color hide chords drawings
tab show chords e-chords YouTube Clip e-chords hide all tabs e-chords go to top tab

share