From First To Last

christmassacre

From First To Last

tabs

by  EUROPEU

save to print version add songbook text version e-mail correct tuner
chordsukulelecavacokeyboardtabbassdrumsharmonicaflute Guitar Pro
close

there isn't a video lesson for this song

chords

christmassacre

	  		tuning drop c:CGCFAD  (most of the song is palm muted so i didnt include PM) 
there is also a second guitar playing the same riffs at different times. 
 
intro pt 1 
|6-5----6-5----6-5--------------------------------------| 
|-------------------------------------------------------| 
|----7------7------7--7777777777777777------------------| 
|-------------------------------------------------------| 
|------------------repeat a few times-------------------| 
|-------------------------------------------------------| 
 
intro pt 2/verse 1     slow bit repeat x 4 
|-------------------|--------------------|---------------| 
|-------------------|--------------------|---------------| 
|-------------------|--------------------|---------------| 
|repeat-------------|1-1-1--1-1-1<-------|---------------| 
|2-1----------------|1-1-1--1-1-1Chorus x2                                     interlude 
|--------------------------|-----------------|---------------------| 
|---voice part-------------|-----screamo-x2--|-----9/////////------| 
|--------------------------|-----------------|---------------------| 
|3-3-333-2-22--1-1-111-0-00|-1-1-111---------|---------------------| 
|3-3-333-2-22--1-1-111-0-00|-1-1-111---------|--repeat a few times-| 
|3-3-333-2-22--1-1-111-0-00|-1-1-111---------|---------------------| 
 
 
repeat verse (without slow bit) and Chorus  
 
 
|---------------|| 
|---------------|| 
|---------------|| 
|---------------||ok now the lyrics 
|-1-------------|| 
|-0-------------|| 

		  

See also:

tabs Linkin Park - Breaking the habit(solo) tabs System Of A Down - Atwa tabs System Of A Down - Boom tabs System Of A Down - Lonely Day (Solo ) tabs Linkin Park - From the Inside tabs System Of A Down - Question
e-chords

Other versions:

tabs From First To Last - christmassacre
auto scroll beats size up size down change color hide chords drawings
tab show chords e-chords YouTube Clip e-chords hide all tabs e-chords go to top tab

share