Frei.Wild

Zieh Mit Den Gttern

Frei.Wild

tabs

by  FERNSANTANA

save to print version add songbook text version e-mail correct tuner
chordsukulelecavacokeyboardtabbassdrumsharmonicaflute Guitar Pro
close

there isn't a video lesson for this song

chords

Zieh Mit Den Gttern

	  		


Intro: 

E|-5-----5--------------| 
H|---3-----3-3//5-------| 
G|----------------------| 8x 
D|----------------------| 
A|----------------------| 
E|----------------------| 



Strophe: 


E|----------------------| 
H|----------------------| 
G|-----------8----------| 
D|-8----5----8----3-----| schnell 
A|-8----5----6----3-----| 
E|-6----3---------1-----| 


E|----------------------| 
H|----------------------| 
G|----------------------| 
D|-8----5----3----5-----| langsam 
A|-8-2x-5-2x-3-2x-5-2x--| 
E|-6----3----1----3-----| 

E|-----------------------| 
H|-----------------------| 
G|-----------8-----------| 
D|-8----5----8----3----5-| Gedämpft schnell 
A|-8----5----6----3----5-| 
E|-6----3---------1----3-| 



Refrain: 



E|-----------------------| 
H|-----------------------| 
G|-8---------------------| 
D|-8----8----3----5----3-| 
A|-6----8----3----5----3-| 
E|------6----1----3----1-| 

E|-------------| 
H|-------------| 
G|-8-----------| 
D|-8----8----3-| 
A|-6----8----3-| 
E|------6----1-| 


E|-----------------------| 
H|-----------------------| 
G|-8---------------------| 
D|-8----8----3----5----3-| 
A|-6----8----3----5----3-| 
E|------6----1----3----1-| 

E|-------------| 
H|-------------| 
G|-8-----------| 
D|-8----3----5-| 
A|-6----3----5-| 
E|------1----3-| 



Strophe: 



E|-----------------------| 
H|-----------------------| 
G|-----------8-----------| 
D|-8----5----8----3----5-| 2x Gedämpft schnell 
A|-8----5----6----3----5-| 
E|-6----3---------1----3-| 



Refrain: 



E|-----------------------| 
H|-----------------------| 
G|-8---------------------| 
D|-8----8----3----5----3-| 
A|-6----8----3----5----3-| 
E|------6----1----3----1-| 

E|-------------| 
H|-------------| 
G|-8-----------| 
D|-8----8----3-| 
A|-6----8----3-| 
E|------6----1-| 


E|-----------------------| 
H|-----------------------| 
G|-8---------------------| 
D|-8----8----3----5----3-| 
A|-6----8----3----5----3-| 
E|------6----1----3----1-| 

E|-------------| 
H|-------------| 
G|-8-----------| 
D|-8----3----5-| 
A|-6----3----5-| 
E|------1----3-| 



Bridge: 



E|-5-----5--------------| 
H|---3-----3-3//5-------| 
G|----------------------| 4x 
D|----------------------| 
A|----------------------| 
E|----------------------| 



Refrain: 



E|-----------------------| 
H|-----------------------| 
G|-----------------------| 
D|------8----3----5----3-| 
A|------8----3----5----3-| 
E|------6----1----3----1-| 

E|-------------| 
H|-------------| 
G|-8-----------| 
D|-8----8----3-| 
A|-6----8----3-| 
E|------6----1-| 


E|-----------------------| 
H|-----------------------| 
G|-8---------------------| 
D|-8----8----3----5----3-| 
A|-6----8----3----5----3-| 
E|------6----1----3----1-| 

E|-------------| 
H|-------------| 
G|-8-----------| 
D|-8----3----5-| letzten Ton klingen lassen 
A|-6----3----5-| 
E|------1----3-| 
		  

See also:

tabs Die Toten Hosen - Friss Oder Stirb tabs Frei.Wild - Zieh Mit Den Gttern tabs Die Toten Hosen - Lasset Uns Singen tabs Selig - Wir Werden Uns Wiedersehn tabs Die Toten Hosen - Kopf Oder Zahl tabs Eisbrecher - Antikorper
e-chords

Other versions:

tabs Frei.Wild - Zieh Mit Den Gttern
auto scroll beats size up size down change color hide chords drawings
tab show chords e-chords YouTube Clip e-chords hide all tabs e-chords go to top tab

share