Freddy King

Hide Away

Freddy King

tabs Easy easy

by  ROWANE

save to print version add songbook text version e-mail correct tuner
chordsukulelecavacokeyboardtabbassdrumsharmonicaflute Guitar Pro
close

there isn't a video lesson for this song

chords

Hide Away

	  		Hide Away: Freddy King 
 
 
             E 
E-------0-|-2/4---------------------|-----------0-2/4-4\2-0---| 
B-0-0h2---|-------------------------|-------0h2-------------2-| 
G---------|-------------------------|-------------------------| 
D---------|-------------------------|-------------------------| 
A---------|-------------------------|-------------------------| 
E---------|-------------------------|-------------------------| 
 
 
 
 
                                                      A 
 -0-----------------------|-----------0-----0-----0-|-------------------------| 
 -------------------------|-------0h2---0h2---0h2---|-------------------------| 
 -------------------------|-------------------------|-------------------------| 
 -------------------------|-------------------------|-------------------------| 
 -------------------------|-------------------------|-------------------------| 
 -------------------------|-------------------------|-------------------------| 
 
 
 
 
                             E 
 -----------0-2/4-4\2-0---|-0-----------------------|-----------0-----0-----0-| 
 -------0h2-------------2-|-------------------------|-------0h2---0h2---0h2---| 
 -------------------------|-------------------------|-------------------------| 
 -------------------------|-------------------------|-------------------------| 
 -------------------------|-------------------------|-------------------------| 
 -------------------------|-------------------------|-------------------------| 
 
 
 
 
   B                         A 
 -2---2-2---2-2/4-0-2p0---|-----0-----0-----0-------|-----0-----------0-------| 
 -----------------------2-|-0h2---0h2---0h2---0---0-|---------3---------------| 
 -------------------------|---------------------2---|-0h1---------2/4---2-0---| 
 -------------------------|-------------------------|-----------------------2-| 
 -------------------------|-------------------------|-------------------------| 
 -------------------------|-------------------------|-------------------------| 
 
 
 
 
       B                     E 
 -0---------------------0-|--------------------------------------------------| 
 -------0---------0-0h2---|-0h2p0h2p0h2p0h2p0h2p0h2p0h2p0h2p0h2p0h2p0h2p0h2p-| 
 -----------2-------------|--------------------------------------------------| 
 -------------------------|--------------------------------------------------| 
 -------------------------|--------------------------------------------------| 
 -------------------------|--------------------------------------------------| 
 
 
 
 
 
 -----0-----0-----0-------|-------------------------|-----------0-------------| 
 -0h2---0h2---0h2---0-----|-----0-------------------|-------0h2---------------| 
 ---------------------2---|-0h1---------------------|-------------------------| 
 -------------------------|-------------------------|-------------------------| 
 -------------------------|-------------------------|-------------------------| 
 -------------------------|-------------------------|-------------------------| 
 
 
 
 
   A                                                   E 
 -------------------------|-----------0-2/4-4\2-0---|-0------------------------| 
 -------------------------|-------0h2-------------2-|-----------------0--------| 
 -------------------------|-------------------------|-------------------2---0h1| 
 -------------------------|-------------------------|--------------------------| 
 -------------------------|-------------------------|--------------------------| 
 -------------------------|-------------------------|--------------------------| 
 
 
 
 
                             B                         A 
 -0---------------------0-|-2---2-2---2-2/4-0-2p0---|-----0-----0-----0-------| 
 -------------------0h2---|-----------------------2-|-0h2---0h2---0h2---0---0-| 
 -------------------------|-------------------------|---------------------2---| 
 -------------------------|-------------------------|-------------------------| 
 -------------------------|-------------------------|-------------------------| 
 -------------------------|-------------------------|-------------------------| 
 
 
 
 
   E                             B                     E 
 -----0-----------0-------|-0-----------------------|-------------------------| 
 ---------3---------------|-------2-----------------|-------------------------| 
 -0h1---------2/4---2-0---|-----------2-------------|-------------------------| 
 -----------------------2-|-----------------0h2-----|-------------------------| 
 -------------------------|-------------------------|-----------------------2-| 
 -------------------------|-------------------------|-0-----------3/4---------| 
 
 
 
 
 
 --------------------------|-------------------------|-------------------------| 
 --------------------------|-------------------------|-------------------------| 
 --------------------------|-------------------------|-------------------------| 
 -5---2-4---2-----0h2------|-------------------------|-5---2-4---2-------------| 
 --------------------------|-----------------------2-|-------------------------| 
 --------------------------|-0-----------3/4---------|-----------------0-3-3-4-| 
 
 
 
 
   A                                                   E 
 -------------------------|-------------------------|-------------------------| 
 -------------------------|-------------------------|-------------------------| 
 -------------------------|-------------------------|-------------------------| 
 -----------------------2-|-5---2-4---2-----0h2-----|-------------------------| 
 -0-----------3/4---------|-------------------------|-----------------------2-| 
 -------------------------|-------------------------|-0-----------3/4---------| 
 
 
 
 
                             B 
 -------------------------|-------------------------|-------------------------| 
 -------------------------|-------------------------|-------------------------| 
 -------------------------|-------------------------|-------------------------| 
 -------------------------|-----------------------4-|-7---4-6---4-----0h2-----| 
 -5---2-4---2-----------0-|-2-----------5/6---------|-------------------------| 
 -----------------0-3/4---|-------------------------|-------------------------| 
 
 
 
 
   E 
 -------------------------|-------------------------|-------------------------| 
 -------------------------|-------------------------|-------------------------| 
 -------------------------|-------------------------|-------------------------| 
 -------------------------|-----------------0h1-----|-------------------------| 
 -----------------------2-|-5---2-4---2-------------|-----------2-----------2-| 
 -0-----------3/4---------|-------------------------|-0---0-3/4---0---0-3/4---| 
 
 
 
 
 
 -------------------------|-------------------------|-------------------------| 
 -------------------------|-------------------------|-------------------------| 
 -------------------------|-------------------------|-------------------------| 
 -------------------------|-------------------------|-------------------------| 
 -----------2-----------2-|-----------2-----------2-|-----------2-------------| 
 -0---0-3/4---0---0-3/4---|-0---0-3/4---0---0-3/4---|-0---0-3/4---0-0-0-3-3-3-| 
 
 
 
 
   A                                                   E 
 -------------------------|-------------------------|-------------------------| 
 -------------------------|-------------------------|-------------------------| 
 -------------------------|-------------------------|-------------------------| 
 -----------2-----------2-|-----------2-----------2-|-------------------------| 
 -0---0-3/4---0---0-3/4---|-0---0-3/4---0---0-3/4---|-----------2-----------2-| 
 -------------------------|-------------------------|-0---0-3/4---0---0-3/4---| 
 
 
 
 
                             B                         A 
 -------------------------|-------------------------|-------------------------| 
 -------------------------|-------------------------|-------------------------| 
 -------------------------|-------------------------|-------------------------| 
 -------------------------|-------------4---4-6p4---|-------------2---2-4p2---| 
 -----------2-----------2-|-2---2-5/6-6-----------6-|-0---0-3/4-4-----------4-| 
 -0---0-3/4---0---0-3/4---|-------------------------|-------------------------| 
 
 
                                                 
 
   E                             B 
 -------------------------|-------------------| 
 -------------------------|-------------------| 
 -------------------------|-------------------| 
 -------------0---1-0---2-|-------------------| 
 -0---0-3---4-------------|-------------------| 
 -------------------------|-------------------| 
 
 
 
 
   E 
 -12-12-12-12-12-12-12----------------|-12-12-12-12-12-12-12----------------| 
 -12-12-12-12-12-12-12----------------|-12-12-12-12-12-12-12----------------| 
 -13-13-13-13-13-13-13----------------|-13-13-13-13-13-13-13----------------| 
 -------------------------------------|-------------------------------------| 
 -------------------------------------|-------------------------------------| 
 -------------------------------------|-------------------------------------| 
 
 
 
 
                                                     A 
 -12-9--7--4\2--0--4\2--|-0--4\2--0--2------------|-------------------------| 
 -----------------------|-------------------------|-------------------------| 
 -13-9--7--4\2--1--4\2--|-1--4\2--1--2------------|-------------------------| 
 -----------------------|-------------------------|-------------------------| 
 -----------------------|-------------------------|-------------------------| 
 -----------------------|-------------------------|-------------------------| 
 
 
 
 
                             E 
 -------------------------|-------------------------|---------------------0-| 
 -------------------------|-------------------------|-----------------0h2---| 
 -------------------------|-------------------------|-----------------------| 
 -------------------------|-------------------------|-----------------------| 
 -------------------------|-------------------------|-----------------------| 
 -------------------------|-------------------------|-----------------------| 
 
 
 
 
   B                         A                         E 
 -2---2-2---2-2/4-0-2p0---|-----0-----0-----0-------|-----0-----------0-------| 
 -----------------------2-|-0h2---0h2---0h2---0---0-|---------3---2/4---------| 
 -------------------------|---------------------2---|-0h1---------------2p0---| 
 -------------------------|-------------------------|-----------------------2-| 
 -------------------------|-------------------------|-------------------------| 
 -------------------------|-------------------------|-------------------------| 
 
 
 
 
       B                     E 
 -0-----------------2-----|-------------------------|-------------------------| 
 -------0-----------0-----|-------------------------|-------------------------| 
 ---------2---------------|-------------------------|-------------------------| 
 -------------------------|-------------------------|-------------------------| 
 -------------------------|-------------------0-----|-------------------0-----| 
 -------------------------|-0--0--2--0--3--0-----3--|-0--0--2--0--3--0-----3--| 
 
 
 
 
                                                       A 
 -------------------------|-------------------------|-------------------------| 
 -------------------------|-------------------------|-------------------------| 
 -------------------------|-------------------------|-------------------------| 
 -------------------------|-------------------------|-------------------0-----| 
 -------------------0-----|-------------------0-----|-0--0--2--0--3--0-----3--| 
 -0--0--2--0--3--0-----3--|-0--0--2--0--3--0-----3--|-------------------------| 
 
 
 
 
                             E                         B 
 -------------------------|-------------------------|-------------------------| 
 -------------------------|-------------------------|-------------------------| 
 -------------------------|-------------------------|-------------------------| 
 -------------------0-----|-------------------------|-------------------------| 
 -0--0--2--0--3--0-----3--|-------------------0-----|-2--2--2--2--2--2--2--2--| 
 -------------------------|-0--0--2--0--3--0-----3--|-------------------------| 
 
 
 
 
   A                                                      B 
 -------------------------|-------------------------|-----------------------0-| 
 -------------------------|-------------------------|-----------------0-0h2---| 
 -------------------------|-------------------------|-------------------------| 
 -------------------0-----|-------------------------|-------------------------| 
 -0--0--2--0--3--0-----3--|-------------------------|----2--2--2--------------| 
 -------------------------|-0--0--0--0--0--0--0--0--|-0-----------------------| 
 
 
 
 
   E 
 -2/4---------------------|-----------0-2/4-4\2-0---|-0-----------------------| 
 -------------------------|-------0h2-------------2-|-------------------------| 
 -------------------------|-------------------------|-------------------------| 
 -------------------------|-------------------------|-------------------------| 
 -------------------------|-------------------------|-------------------------| 
 -------------------------|-------------------------|-------------------------| 
 
 
 
 
                             A 
 -------------------------|-------------------------|-----------0-2/4-4\2-0---| 
 -------------------------|-------------------------|-------0h2-------------2-| 
 -------------------------|-------------------------|-------------------------| 
 -------------------------|-------------------------|-------------------------| 
 -------------------------|-0-----------------------|-------------------------| 
 -----------------0-3-3-4-|-------------------------|-------------------------| 
 
 
 
 
   E                                                   B 
 -0-----------------------|-----------------------0-|-2---2-2---2-2/4-0-2p0---| 
 -------------------------|-------------------0h2---|-----------------------2-| 
 -------------------------|-0h2---------------------|-------------------------| 
 -------------------------|-------------------------|-------------------------| 
 -------------------------|-------------------------|-------------------------| 
 -------------------------|-------------------------|-------------------------| 
 
 
 
 
   A                         E 
 -----0-----0-2/4-0-2p0---|----2/3-2-0-----0--2--3--|-3/4---/13-/13-----------|| 
 -0h2---0h2-------------2-|-------------2-----------|----0--------------------|| 
 -------------------------|-------------------------|-------/12-/12-----------|| 
 -------------------------|-------------------------|-------------------------|| 
 -------------------------|-------------------------|-------------------------|| 
 -------------------------|-------------------------|-------------------------|| 
 
 

		  

Full key step upFull key step up
Half key step upHalf key step up
Half key step downHalf key step down
Full key step downFull key step down
hide glossary

See also:

tabs Rival Sons - Keep On Swinging tabs Rival Sons - Memphis Sun tabs John Lee Hooker - Funky mabel tabs Rival Sons - Where I've Been tabs Allman Brothers Band - Blue sky tabs Jerry Roll Morton - Dead man blues
e-chords

Other versions:

tabs Freddy King - Hide Away
auto scroll beats size up size down change color hide chords drawings
tab show chords e-chords YouTube Clip e-chords hide all tabs e-chords go to top tab

share