Foxing

The Medic

Foxing

tabs Expert expert

by  IRONPOWER4EVER

save to print version add songbook text version e-mail correct tuner
chordsukulelecavacokeyboardtabbassdrumsharmonicaflute Guitar Pro
close

there isn't a video lesson for this song

chords

The Medic

	  		
 

 

Tuning: standard 
0:16-0:25 
e|-------------------------------------------12------------------------------| 
B|-12--5---------------12--5----------12/14------7-7/9\7---------------------| 
G|-------13--6---------------13--6-----------------------9-------------------| 
D|---------------------------------------------------------------------------| 
A|---------------------------------------------------------------------------| 
E|---------------------------------------------------------------------------| 
0:26-1:04 
e|----------------------12-----------|     
B|-12--5----------12/14----7-7/9\7---|     
G|-------13--6---------------------9-| x8  
D|-----------------------------------|     
A|-----------------------------------| 
E|-----------------------------------| 
1:05-1:43 
e|------------------------------|----------------------|----------------12-----| 
B|-12--5------------12--5-------|--12--5---------12--5-|--12--5----------------| 
G|-------13--6------------13--6-|--------13--6---------|--------13--6----------| 
D|------------------------------|----------------------|-----------------------| 
A|------------------------------|----------------------|-----------------------| 
E|------------------------------|----------------------|-----------------------| 

e|----------------------|---------------------|---------------------|--------------17----12-------| 
B|-12--5---------12---5-|-12--5---------14-5--|-12--5--------12---5-|-12--5-----------14----------| 
G|-------13--6------6---|-------13--6-------6-|-------13--6-----6---|-------13--6-----------------| 
D|----------------------|---------------------|---------------------|-----------------------------| 
A|----------------------|---------------------|---------------------|-----------------------------| 
E|----------------------|---------------------|---------------------|-----------------------------| 
1:44-2:02 
e|--------------12--------------5-------------------------| 
B|-12--5-----------5--------7/9---9-----14/12--10--12/14--| 
G|-------6-----------6------------------------------------| x2 
D|--------------------------------------------------------| 
A|--------------------------------------------------------| 
E|--------------------------------------------------------| 
2:03-2:41 
e|------------------------12------------------------------------| 
B|-12--5------------12/14---------7-7/9\7----------12--5--------| 
G|-------13--6----------------------------9--------------13--6--| x4 
D|--------------------------------------------------------------| 
A|--------------------------------------------------------------| 
E|--------------------------------------------------------------| 
2:42-3:01 
e|-------------|     |------------------------|----------------17-----12------------------| 
B|-12--5-------|     |--12--5---------12---5--|--12--5------------14----------------------| 
G|------13--6--| x2  |--------13--6------6----|--------13--6------------------------------| 
D|-------------|     |------------------------|-------------------------------------------| 
A|-------------|     |------------------------|-------------------------------------------| 
E|-------------|     |------------------------|-------------------------------------------| 
3:02-3:48 
e|--------------12--------------5-------------------------|      |------------| 
B|-12--5-----------5--------7/9---9-----14/12--10--12/14--|      |--12--5-----| 
G|-------6-----------6------------------------------------| x4   |--------6---| 
D|--------------------------------------------------------|      |------------| 
A|--------------------------------------------------------|      |------------| 
E|--------------------------------------------------------|      |------------| 




************************************ 

| /   slide up 
| \   slide down 
| h   hammer-on 
| p   pull-off 
| ~   vibrato 
| +   harmonic 
| x   Mute note 
| b   Bend 
| pb  Pre-bend 
| br  Bend release 
| pbr Pre-bend release 
| brb Bend release bend 

************************************ 
		  

auto scroll beats size up size down change color hide chords drawings
tab show chords e-chords YouTube Clip e-chords hide all tabs e-chords go to top tab

share