Four Year Strong

Tread Lightly

Four Year Strong

tabs

by  FERNSANTANA

save to print version add songbook text version e-mail correct tuner
chordsukulelecavacokeyboardtabbassdrumsharmonicaflute Guitar Pro
close

there isn't a video lesson for this song

chords

Tread Lightly

	  		
Intro 
d|----------------------------------------------------------------------------------| 
A|----------------------------------------------------------------------------------| 
F|-----------------9----------------------------------------------------------------| 
C|--------4-6---/11-11p9------------------------------------------------------------|    
G|--4-------------------11----------------------------------------------------------| 
D|---0-2-5-5-5-------------9-0-2-5-2-----------  Pick Slide   ----------------------| 

Riff 
d|-----------------------------------------------------------| 
A|-----------------------------------------------------------| 
F|-------------------9-------------------2-2--2-2------------| 
C|---------4--6---/11-11p9---5-5--11-11--2-2--2-2-1h2p1------|   x2 
G|--4---------------------11-5-5--11-11--0-0--0-0------2-4-2-| 
D|---0-2-5--5--5-------------7-7--9--9-----------------------| 

verse 1 
d|------------------------------------------------------------------| 
A|------------------------------------------------------------------| 
F|--------2-22222-----4--------------------------2-22222-----4-44-4-| 
C|-22-2-4-2-22222-2-4-4-----2222222222222222-2-4-2-22222-2-4-4-44-4-| 
G|-22-2-4-0-02222-2-4-2----------------------2-4-0-00000-2-4-2-22-2-| 
D|-00-0-2---------0-2------------------------0-2---------0-2--------| 
   xx       xxxxx            xxxxxxxxxxxxxxx       xxxxx       xx  

Pre Chorus 1 
d|---------------------------------------------------------------------------------| 
A|---------------------------------------------------------------------------------| 
F|-2-2-2-22---------44-4-4-4---------2-2-2-222222--------------4-4-4-4-4-4-4-44444-| 
C|-2-2-2-22-2-2-2-2-44-4-4-4---2--2--2-2-2-222222-2-2-2-222222-4-4-4-4-4-4-4-44444-| 
G|-0-0-0-00-2-2-2-2-22-2-2-2--4-4--2-0-0-0-000000-2-2-2-222222-2-2-2-2-2-2-2 22222-| 
D|----------0-0-0-0--------------4----------------0-0-0-000000---------------------| 
                                           xxxxxx       xxxxxx   x x x x x x 

Chorus 
d|----------------------------------------------------| 
A|----------------------------------------------------| 
F|---------------------------------6-6-6--------------| 
C|---66----6---------66--- 9-------6-6-696-7-7--------| x2 
G|-----77----77--------77-----7----4-4-496-7-7-6h76h7-| 
D|-0-----9-----9-7-0-----9---7-9-5------74-5-5-5--5---| 


Riff 
d|-----------------------------------------------------------| 
A|-----------------------------------------------------------| 
F|-------------------9-------------------2-2--2-2------------| 
C|---------4--6---/11-11p9---5-5--11-11--2-2--2-2-1h2p1------| x2 
G|--4---------------------11-5-5--11-11--0-0--0-0------2-4-2-| 
D|---0-2-5--5--5-------------7-7--9--9-----------------------| 


verse 2 
d|------------------------------------------------------------------| 
A|------------------------------------------------------------------| 
F|--------------4-6\-----------------------------2-22222-----4-44-4-| 
C|--------------4-6\-------------------------2-4-2-22222-2-4-4-44-4-| 
G|--------------2-4\-------------------------2-4-0-00000-2-4-2-22-2-| 
D|-------------------------------------------0-2---------0-2--------| 
                                                   xxxxx       xx  

Pre Chorus 2 
d|-----------------------------------------------------------------------------------------------| 
A|-----------------------------------------------------------------------------------------------| 
F|-2-2-2-22---------44-4-4-4---------2-2-2-222222--------------4-4-4-4-4-4-44-44-4-4-44-4-4-44-4-| 
C|-2-2-2-22-2-2-2-2-44-4-4-4---2--2--2-2-2-222222-2-2-2-222222-4-4-4-4-4-4-44-44-4-4-44-4-4-44-4-| 
G|-0-0-0-00-2-2-2-2-22-2-2-2--4-4--2-0-0-0-000000-2-2-2-222222-2-2-2-2-2-2-22-22-2-2-22-2-2-22-2-| 
D|----------0-0-0-0--------------4----------------0-0-0-000000-----------------------------------| 
                                           xxxxxx       xxxxxx   x x   x x xx 
  
Chorus 2 
d|----------------------------------------------------| 
A|----------------------------------------------------| 
F|---------------------------------6-6-6--------------| 
C|---66----6---------66--- 9-------6-6-696-7-7--------| x2 
G|-----77----77--------77-----7----4-4-496-7-7-6h76h7-| 
D|-0-----9-----9-7-0-----9---7-9-5------74-5-5-5--5---| 


d|-----------------------16p12\11h12-----------------------------------------------16p12\11h12-| 
A|14-14-14-14-14-12-12h14-----------14-14-14-14-12-12-12-12-14-14-14-14-14-12-12h14------------| 
F|13-13-13-13-13--------------------13-13-13-13-13-13-13-13-13-13-13-13-13---------------------| 
C|---------------------------------------------------------------------------------------------| 
G|---------------------------------------------------------------------------------------------| 
D|---------------------------------------------------------------------------------------------| 

d|-------------------| 
A|-14-14-14-14-14-12-| 
F|-13-13-13-13-13-13-| 
C|-------------------| 
G|-------------------| 
D|-------------------| 


Bridge? 
d|-----------------------------------------------------------------------------------------------| 
A|-----------------------------------------------------------------9-----------------------------| 
F|--9-11-----9-11-8--9-11----9-11-8---9-11--99-13p99-9-11--99-13p99-9-11-9-9-8--9-11--99-13p99---| 
C|------11---------------11---------------11-------------11-------------9-9---------11-----------| 
G|-----------------------------------------------------------------------------------------------| 
D|-----------------------------------------------------------------------------------------------| 
                                            xx  x xx       xx  x xx                     xx  x xx 

d|----------------------------------------------------------------------------------| 
A|--9-------------------------------------------------------------------------------| 
F|---9-11--9-9-8--2-----------4-----------2-2-2-2-2-2-------------4-4-4-4-4-4-4-444-| 
C|-------9--9-----2-----2-----4-----2--2--2-2-2-2-2-2-2-2-2-2-2-2-4-4-4-4-4-4-4-444-| 
G|----------------0-----2-----2----4-4--2-0-0-0-0-0-0-2-2-2-2-2-2-2-2-2-2-2-2-2-222-| 
D|----------------------0-------------4---------------0-0-0-0-0-0-------------------| 
                                                x x x       x x x   x x   x x   xx 

Chorus 2 
d|----------------------------------------------------| 
A|----------------------------------------------------| 
F|---------------------------------6-6-6--------------| 
C|---66----6---------66--- 9-------6-6-696-7-7--------| x2 
G|-----77----77--------77-----7----4-4-496-7-7-6h76h7-| 
D|-0-----9-----9-7-0-----9---7-9-5------74-5-5-5--5---| 


d|-----------------------16p12\11h12-----------------------------------------------16p12\11h12-| 
A|14-14-14-14-14-12-12h14-----------14-14-14-14-12-12-12-12-14-14-14-14-14-12-12h14------------| 
F|13-13-13-13-13--------------------13-13-13-13-13-13-13-13-13-13-13-13-13---------------------| 
C|---------------------------------------------------------------------------------------------| 
G|---------------------------------------------------------------------------------------------| 
D|---------------------------------------------------------------------------------------------| 

d|-------------------| 
A|-14-14-14-14-14-12-| 
F|-13-13-13-13-13-13-| 
C|-------------------| 
G|-------------------| 
D|-------------------| 


Outro 
d|-------------------------------------------------| 
A|-------------------------------------------------| 
F|-------------------9-----------------------------| 
C|---------4--6---/11-11p9---5-5--11-11--7-7--7-7\-|    
G|--4---------------------11-5-5--11-11--7-7--7-7\-| 
D|---0-2-5--5--5-------------7-7--9--9---5-5--5-5\-| 


                                            


************************************ 

| /   slide up 
| \   slide down 
| h   hammer-on 
| p   pull-off 
| ~   vibrato 
| +   harmonic 
| x   Mute note 
| b   Bend 
| pb  Pre-bend 
| br  Bend release 
| pbr Pre-bend release 
| brb Bend release bend 

************************************ 
		  

See also:

tabs Creed - One Last Breath (ver. 2) tabs Guns N' Roses - Sweet Child O' Mine (ver. 2) tabs Guns N' Roses - 14 Years tabs The Doors - People Are Strange tabs Live - Lightning Crashes tabs Aerosmith - I Don't Want To Miss A Thing
e-chords

Other versions:

tabs Mastodon - Tread Lightly tabs Four Year Strong - Tread Lightly
auto scroll beats size up size down change color hide chords drawings
tab show chords e-chords YouTube Clip e-chords hide all tabs e-chords go to top tab

share