Foster The People

Fire Escape

Foster The People

tabs Beginner beginner

by  PAULANTUNES

save to print version add songbook text version e-mail correct tuner
chordsukulelecavacokeyboardtabbassdrumsharmonicaflute Guitar Pro
close

there isn't a video lesson for this song

chords

Fire Escape

	  		
Intro: 
h = hammer-on 

e----------------------------------------------------------------------| 
B----------------------------------------------------------------------| 
G----------------------------------------------------------------------| 
D-----2-------2-------2----2---2------2------2------2---2---2---2------| 
A-4-4---4-2-2---2-0-0-----------------------------4---2---0---0---0h2--| 
E---------------------------0-0--0-2-2--2-4-4--------------------------| 



e-----------------------------------------------| 
B-----------------------------------------------| 
G-----------------------------------------------| 
D-2---2-----------------------------------------| repeat throughout verses 
A---0-------------------------------------------| 
E-----------------------------------------------| 


Chorus: 

e--------------------------------------------------------------------| 
B--------------------------------------------------------------------| 
D--------------------------------------------------------------------| 
G---2---2---2---2---2---2-----2--------2-------2------2----2---2---2-| 
A-4---4---2---2---2---2-----------------------------4----4---2---2---| 
E-------------------------0-0---0-2-2----2-4-4-----------------------| 
save yourself...........                         save yourself...... 


e-------------------------------| 
B-------------------------------| 
G-------------------------------| 
D---2---2---2---2---2---2-----2-| 
A-2---2---0---0---0---0---0h2---| 
E-------------------------------|  
		  

See also:

tabs Ben Harper - Amen omen tabs Incubus - Drive tabs Jay-z & Linkin Park - Numb / Encore tabs Jonas Brothers - Gotta Find You (camp Rock) tabs Red Hot Chili Peppers - Soul To Squeeze tabs Red Hot Chili Peppers - Fortune Faded
e-chords

Other versions:

tabs Foster The People - Fire Escape
auto scroll beats size up size down change color hide chords drawings
tab show chords e-chords YouTube Clip e-chords hide all tabs e-chords go to top tab

share