Forfun

4 A.M

Forfun

tabs Beginner beginner

by  WAGNER2091

save to print version add songbook text version e-mail correct tuner
chordsukulelecavacokeyboardtabbassdrumsharmonicaflute Guitar Pro
close

there isn't a video lesson for this song

chords

4 A.M

	  		FORFUN 
4 A.M 

INTRO 
|--------------------|----------------------------------------------------| 
|--------------------|----------------------------------------------------| 
|-------------6-6-6-6|-7-7-7-7-----------------9-9-9-9--------------------|   2X 
|-7-7-7-7-----6-6-6-6|-7-7-7-7-----4-4-4-4-----9-9-9-9--------------------| 
|-7-7-7-7-----4-4-4-4|-5-5-5-5-----4-4-4-4-----7-7-7-7--------------------| 
|-5-5-5-5------------|-------------2-2-2-2--------------------------------| 


Quatro da manha voce me liga.... 
|-----------------------------------------------------------| 
|-----------------------------------------------------------| 
|--------------9-9-9-9-----7-7-7-7-----8-8-8-8-----4-4-4-4--|    2X 
|--7-7-7-7-----9-9-9-9-----7-7-7-7-----8-8-8-8-----4-4-4-4--| 
|--7-7-7-7-----7-7-7-7-----5-5-5-5-----6-6-6-6-----2-2-2-2--| 
|--5-5-5-5--------------------------------------------------| 

Seus concelhos.... 
|-------------------------------------------| 
|-------------------------------------------| 
|---------------------7-7-7-7-----9-9-9-9---| 
|-4-4-4-4-4-4-4-4-----7-7-7-7-----9-9-9-9---| 
|-4-4-4-4-4-4-4-4-----5-5-5-5-----7-7-7-7---| 
|-2-2-2-2-2-2-2-2---------------------------| 

Te desejo toda sorte.... 
|-----------------------------------------------------------------------| 
|-----------------------------------------------------------------------| 
|--------------------------------------7-7-7-7-----9-9-9-9--------------| 
|-7-7-7-7-----6-6-6-6------4-4-4-4-----7-7-7-7-----9-9-9-9-----7-7-7-7--| 
|-7-7-7-7-----6-6-6-6------4-4-4-4-----5-5-5-5-----7-7-7-7-----7-7-7-7--| 
|-5-5-5-5-----4-4-4-4------2-2-2-2-----------------------------5-5-5-5--| 

Solinho. 
|-----------------------|  
|-9-7-6-7-6---6---------|  
|-----------9---9-7-----| 
|-----------------------| 
|-----------------------| 

Quantas vezes eu me perguntei... 
|--------------------------------------------------------------------| 
|--------------------------------------------------------------------| 
|--------------9-9-9-9-----7-7-7-7-----8-8-8-8-----4-4-4-4-----------|    2X 
|--7-7-7-7-----9-9-9-9-----7-7-7-7-----8-8-8-8-----4-4-4-4-----------| 
|--7-7-7-7-----7-7-7-7-----5-5-5-5-----6-6-6-6-----2-2-2-2-----------| 
|--5-5-5-5-----------------------------------------------------------| 
É assim que ninguém... 
|-----------------------------------------------------------------------------------| 
|-----------------------------------------------------------------------------------| 
|--------------9-9-9-9-----------------------------------------7-7-7-7-----9-9-9-9--| 
|-4-4-4-4------9-9-9-9-----7-7-7-7-----6-6-6-6-----4-4-4-4-----7-7-7-7-----9-9-9-9--| 
|-4-4-4-4------7-7-7-7-----7-7-7-7-----6-6-6-6-----4-4-4-4-----5-5-5-5-----7-7-7-7--| 
|-2-2-2-2------------------5-5-5-5-----4-4-4-4-----2-2-2-2--------------------------| 

Refrão 
Vejo a sorte no futuro... 
|---------------------------------------------------------------------| 
|---------------------------------------------------------------------| 
|-------------------------------------7-7-7-7-----9-9-9-9-------------|    2X 
|-7-7-7-7-----6-6-6-6-----4-4-4-4-----7-7-7-7-----9-9-9-9-----7-7-7-7-| 
|-7-7-7-7-----6-6-6-6-----4-4-4-4-----5-5-5-5-----7-7-7-7-----7-7-7-7-| 
|-5-5-5-5-----4-4-4-4-----2-2-2-2-----------------------------5-5-5-5-| 

Intro 
|--------------------|-----------------------------------| 
|--------------------|-----------------------------------| 
|-------------6-6-6-6|-7-7-7-7-----------------9-9-9-9---|   2X 
|-7-7-7-7-----6-6-6-6|-7-7-7-7-----4-4-4-4-----9-9-9-9---| 
|-7-7-7-7-----4-4-4-4|-5-5-5-5-----4-4-4-4-----7-7-7-7---| 
|-5-5-5-5------------|-------------2-2-2-2---------------| 


SOLO 

Refrão 
Vejo a sorte no futuro... 
|------------------------------------------------------------------------------------| 
|------------------------------------------------------------------------------------| 
|-------------------------------------7-7-7-7-----9-9-9-9----------------------------|    2X 
|-7-7-7-7-----6-6-6-6-----4-4-4-4-----7-7-7-7-----9-9-9-9-----7-7-7-7----------------| 
|-7-7-7-7-----6-6-6-6-----4-4-4-4-----5-5-5-5-----7-7-7-7-----7-7-7-7----------------| 
|-5-5-5-5-----4-4-4-4-----2-2-2-2-----------------------------5-5-5-5----------------| 


|--------------------|---------------------------------|            |-----------| 
|--------------------|---------------------------------|            |-----------| 
|-------------6-6-6-6|-7-7-7-7-----------------9-9-9-9-| 2X         |-----------|    
|-7-7-7-7-----6-6-6-6|-7-7-7-7-----4-4-4-4-----9-9-9-9-|            |-7-7-7-7---| 
|-7-7-7-7-----4-4-4-4|-5-5-5-5-----4-4-4-4-----7-7-7-7-|            |-7-7-7-7---| 
|-5-5-5-5------------|-------------2-2-2-2-------------|            |-5-5-5-5---| 
		  

See also:

tabs Nx Zero - Uma Chance tabs Matanza - Ela Roubou Meu Caminhão tabs CPM 22 - Vidas que Se Encontram tabs CPM 22 - Irreversível (intro) tabs Forfun - Historia de Verão tabs CPM 22 - Dias atrás
e-chords

Other versions:

tabs Forfun - 4 A.M
auto scroll beats size up size down change color hide chords drawings
tab show chords e-chords YouTube Clip e-chords hide all tabs e-chords go to top tab

share