save to print version add songbook text version e-mail correct tuner
chordsukulelecavacokeyboardtabbassdrumsharmonicaflute Guitar Pro
close

there isn't a video lesson for this song

chords

Bombay

Key:  C More
Bombay Key GG
Bombay Key G#G#
Bombay Key AA
Bombay Key A#A#(one step down)
Bombay Key BB(half step down)
Bombay Key CC(original key)
Bombay Key C#C#(half step up)
Bombay Key DD(one step up)
Bombay Key D#D#
Bombay Key EE
Bombay Key FF
Bombay Key F#F#
	  		

  
d|-8-9h-8p-4-6-13-9-8-8-9-8p-4-1-4-1--8-9h-8p-4-6-13-11-8-8-9-/16-13-14h-13p-9-\6-| (x4) 
A|--------------------------------------------------------------------------------| 
F|--------------------------------------------------------------------------------| 
C|--------------------------------------------------------------------------------| 
G|--------------------------------------------------------------------------------| 
C|--------------------------------------------------------------------------------| 
                                    
  
d|--------------------------------------------------------------------------------| (x4) 
A|--------------------------------------------------------------------------------| 
F|--------------------------------------------------------------------------------| 
C|----------------------------------8-8x-8x-8-8-8-9h-8p-8-8x-8x-8x----------------| 
G|-------8-8-8-------6-6-6-----4-4--8-8x-8x-8-8-8-9h-8p-8-8x-8x-8x----------------| 
C|-4-4-4-------3-3-3-------1-1------8-8x-8x-8-8-8-9h-8p-8-8x-8x-8x----------------| 

d|--------------------------------------------------------------------------------| (x1) 
A|--------------------------------------------------------------------------------| 
F|--------------------------------------------------------------------------------| 
C|--------------------------------------------------------------------------------| 
G|-------8-8-8-------6-6-6-----4-4------------------------------------------------| 
C|-4-4-4-------3-3-3-------1-1----------------------------------------------------| 

d|--------------------------------------------------------------------------------| (x2) 
A|--------------------------------------------------------------------------------| 
F|--------------------------------------------------------------------------------| 
C|-8x-8x-8x-8-8-8-9h-8xp-8--8x-8x-8x-8x-9xh-9x-9x-9x-9x-9x-9x-9x------------------| 
G|-8x-8x-8x-8-8-8-9h-8xp-8--8x-8x-8x-8x-9xh-9x-9x-9x-9x-9x-9x-9x------------------| 
C|-8x-8x-8x-8-8-8-9h-8xp-8--8x-8x-8x-8x-9xh-9x-9x-9x-9x-9x-9x-9x------------------| 

d|-0(hold)------------------------------------------------------------------------| (x1) 
A|-6(hold)------------------------------------------------------------------------| 
F|-3(hold)------------------------------------------------------------------------| 
C|--------------------------------------------------------------------------------| 
G|--------------------------------------------------------------------------------| 
C|--------------------------------------------------------------------------------| 

d|--------------------------------------------------------------------------------| (x2) 
A|--------------------------------------------------------------------------------| 
F|-10-10-10-10--10-10-10-10--13-13-13--13-13-13--15-15-15--15-15-15---------------| 
C|-08-08-08-08--08-08-08-08--10-10-10--10-10-10--11-11-11--11-11-11---------------| 
G|-09-09-09-09--09-09-09-09--11-11-11--11-11-11--13-13-13--13-13-13---------------| 
C|--------------------------------------------------------------------------------| 

d|-8-9h-8p-4-6-13-9-8-8-9-8p-4-1-4-1--8-9h-8p-4-6-13-11-8-8-9-/16-13-14h-13p-9-\6-| (x4) 
A|--------------------------------------------------------------------------------| 
F|--------------------------------------------------------------------------------| 
C|--------------------------------------------------------------------------------| 
G|--------------------------------------------------------------------------------| 
C|--------------------------------------------------------------------------------| 

   
  For this part, the strum pattern is really fast, so I'm going to put the  
  count above the chord (i.e. "(8x)" means strum 8 times). 
    
  (6x)  (6x) (2x)          (2x)         (3x)  (3x) (3x hold on third - repeat once) 
d|--------------------------------------------------------------------------------| (x3) 
A|--------------------------------------------------------------------------------| 
F|--------------------------------------------------------------------------------| (this goes on though next part) 
C|--------------------------------------------------------------------------------| 
G|-8x---8x---9x---9x--9x---9x---9x--9x---8x---8x---9x-----------------------------| 
C|-8x---8x---9x---9x--9x---9x---9x--9x---8x---8x---9x-----------------------------| 
  
   
d|-8(hold)----8(hold)-------------------------------------------------------------| (repeat until next section) 
A|---12-11-12---12-11-12----------------------------------------------------------| 
F|--------------------------------------------------------------------------------| 
C|--------------------------------------------------------------------------------| 
G|--------------------------------------------------------------------------------| 
C|--------------------------------------------------------------------------------| 

d|--------------------------------------------------------------------------------| (4x) 
A|--------------------------------------------------------------------------------| 
F|--------------------------------------------------------------------------------| 
C|-8-8x-8x-8-8-8-9h-8p-8-8x-8x-8x-------------------------------------------------| 
G|-8-8x-8x-8-8-8-9h-8p-8-8x-8x-8x-------8-8-8-------6-6-6-----4-4-----------------| 
C|-8-8x-8x-8-8-8-9h-8p-8-8x-8x-8x-4-4-4-------3-3-3-------1-1---------------------| 

d|--------------------------------------------------------------------------------| (x2) 
A|--------------------------------------------------------------------------------| 
F|-10-10-10-10--10-10-10-10--13-13-13--13-13-13--15-15-15--15-15-15---------------| 
C|-08-08-08-08--08-08-08-08--10-10-10--10-10-10--11-11-11--11-11-11---------------| 
G|-09-09-09-09--09-09-09-09--11-11-11--11-11-11--13-13-13--13-13-13---------------| 
C|--------------------------------------------------------------------------------| 

d|-8-9h-8p-4-6-13-9-8-8-9-8p-4-1-4-1--8-9h-8p-4-6-13-11-8-8-9-/16-13-14h-13p-9-\6-| (x4) 
A|--------------------------------------------------------------------------------| 
F|--------------------------------------------------------------------------------| 
C|--------------------------------------------------------------------------------| 
G|--------------------------------------------------------------------------------| 
C|--------------------------------------------------------------------------------| 

 (repeat this section 3 times) 
d|-13-14h-13p-------------------18---------16-------------------------------------| (4x) 
A|------------14-------------------13x-15x----------------------------------------| 
F|---------------15-11------------------------------------------------------------| 
C|--------------------------------------------------------------------------------| 
G|--------------------------------------------------------------------------------| 
C|--------------------------------------------------------------------------------| 

************************************ 

| /   slide up 
| \   slide down 
| h   hammer-on 
| p   pull-off 
| x   Mute note 
		  

See also:

tabs Deep Purple - Smoke on the water (ver. 3) tabs Albert Hammond Jr - Holiday tabs Deep Purple - When a Blind man cries tabs Deep Purple - The Unwritten Law tabs Deep Purple - Highway Star tabs Ira! - Núcleo Base ( Acústico MTV)
e-chords

Other versions:

tabs For The Fallen Dreams - Bombay tabs Dream Theater - Bombay Vindaloo
auto scroll beats size up size down change color hide chords drawings
tab show chords e-chords YouTube Clip e-chords hide all tabs e-chords go to top tab

share