Folkslave

Whisky, Putas E Cigarro

Folkslave

tabs

by  AMAN_CLAUDINO

save to print version add songbook text version e-mail correct tuner
chordsukulelecavacokeyboardtabbassdrumsharmonicaflute Guitar Pro
close

there isn't a video lesson for this song

chords

Whisky, Putas E Cigarro

	  		 
D#||-------------------|-----------------------|--------------------| 
A#||-------------------|-----------------------|--------------------| 
F#||-------------------|-----------------------|--------------------| 
C#||-------------------|-----------------------|--------------------| 
G#||--2----------------|--2--2--2--2--5--------|--2--2--6--5--------| 
D#||--0----------------|--0--0--0--0--3--------|--0--0--4--3--------| 
 


  PM PM PM PM             PM PM                PM PM PM PM    PM PM PM 
 
   E  E  E  E  H           E  E  E  H           E  E  E  E  E  E  E  E 
-----------------------|--------------------|--------------------------| 
-----------------------|--------------------|--------------------------| 
-----------------------|--------------------|--------------------------| 
-----------------------|--------------------|--------------------------| 
--2--2--2--2--5--------|--2--2--6--5--------|--2--2--2--2--5--2--2--2--| 
--0--0--0--0--3--------|--0--0--4--3--------|--0--0--0--0--3--0--0--0--| 
 


     PM PM PM               PM PM PM PM    PM PM PM 
 
   E  E  E  E  Q    E  E     E  E  E  E  E  E  E  E 
-------------------------|--------------------------| 
-------------------------|--------------------------| 
-------------------------|--------------------------| 
-------------------------|--------------------------| 
--6--2--2--2--7----7--7--|--2--2--2--2--5--2--2--2--| 
--4--0--0--0--5----5--5--|--0--0--0--0--3--0--0--0--| 
 


     PM PM PM        TH        PM PM PM PM    PM PM PM 
 
   E  E  E  E  Q      Q         E  E  E  E  E  E  E  E 
----------------------------|--------------------------| 
----------------------------|--------------------------| 
----------------------------|--------------------------| 
----------------------------|--------------------------| 
--6--2--2--2--3-------------|--2--2--2--2--5--2--2--2--| 
--4--0--0--0--1----<>1b~----|--0--0--0--0--3--0--0--0--| 
 


     PM PM PM               PM PM PM PM    PM PM PM       PM PM PM 
 
   E  E  E  E  Q    E  E     E  E  E  E  E  E  E  E     E  E  E  E  Q    E  E 
-------------------------|--------------------------|-------------------------| 
-------------------------|--------------------------|-------------------------| 
-------------------------|--------------------------|-------------------------| 
-------------------------|--------------------------|-------------------------| 
--6--2--2--2--7----7--7--|--2--2--2--2--5--2--2--2--|--6--2--2--2--3----3--3--| 
--4--0--0--0--5----5--5--|--0--0--0--0--3--0--0--0--|--4--0--0--0--1----1--1--| 
 


  PM PM PM PM    PM PM PM       PM PM PM               PM PM PM PM    PM PM PM 
 
   E  E  E  E  E  E  E  E     E  E  E  E  Q    E  E     E  E  E  E  E  E  E  E 
--------------------------|-------------------------|--------------------------| 
--------------------------|-------------------------|--------------------------| 
--------------------------|-------------------------|--------------------------| 
--------------------------|-------------------------|--------------------------| 
--2--2--2--2--5--2--2--2--|--6--2--2--2--7----7--7--|--2--2--2--2--5--2--2--2--| 
--0--0--0--0--3--0--0--0--|--4--0--0--0--5----5--5--|--0--0--0--0--3--0--0--0--| 
 


     PM PM PM               PM PM PM PM    PM PM PM       PM PM PM 
 
   E  E  E  E  Q    E  E     E  E  E  E  E  E  E  E     E  E  E  E  Q    E  E 
-------------------------|--------------------------|-------------------------| 
-------------------------|--------------------------|-------------------------| 
-------------------------|--------------------------|-------------------------| 
-------------------------|--------------------------|-------------------------| 
--6--2--2--2--3----3--3--|--2--2--2--2--5--2--2--2--|--6--2--2--2--7----7--7--| 
--4--0--0--0--1----1--1--|--0--0--0--0--3--0--0--0--|--4--0--0--0--5----5--5--| 
 


  PM PM PM PM    PM PM PM          PM PM PM PM PM PM PM PM 
  E  E  E  E  E  E  E  E           E  E  E  E  E  E  E  Q 
 
--------------------------|-----|----------------------------| 
--------------------------|-----|----------------------------| 
--------------------------|-----|----------------------------| 
--------------------------|-----|----------------------------| 
--2--2--2--2--5--2--2--2--|-----|--2--2--2--2--2--2--2--2----| 
--0--0--0--0--3--0--0--0--|-----|--0--0--0--0--0--0--0--0----| 
 


                            PM PM PM PM PM PM PM PM 
  E  Q    E  E  E  Q        E  E  E  E  E  E  E  Q 
 
-------------------------|----------------------------| 
-------------------------|----------------------------| 
-------------------------|----------------------------| 
-------------------------|----------------------------| 
--7--7----7--7--7--7/----|--2--2--2--2--2--2--2--2----| 
--5--5----5--5--5--5/----|--0--0--0--0--0--0--0--0----| 
 


                            PM PM PM PM PM PM PM PM 
  E  Q    E  E  E  Q        E  E  E  E  E  E  E  Q 
 
-------------------------|----------------------------| 
-------------------------|----------------------------| 
-------------------------|----------------------------| 
-------------------------|----------------------------| 
--3--3----3--3--3--3\----|--2--2--2--2--2--2--2--2----| 
--1--1----1--1--1--1\----|--0--0--0--0--0--0--0--0----| 
 


                            PM PM PM PM PM PM PM PM 
  E  Q    E  E  E  Q        E  E  E  E  E  E  E  Q 
 
-------------------------|----------------------------| 
-------------------------|----------------------------| 
-------------------------|----------------------------| 
-------------------------|----------------------------| 
--7--7----7--7--7--7/----|--2--2--2--2--2--2--2--2----| 
--5--5----5--5--5--5/----|--0--0--0--0--0--0--0--0----| 
 


                            PM PM PM PM    PM PM PM       PM PM PM 
 
   E  Q    E  E  E  Q        E  E  E  E  E  E  E  E     E  E  E  E  Q    E  E 
-------------------------|--------------------------|-------------------------| 
-------------------------|--------------------------|-------------------------| 
-------------------------|--------------------------|-------------------------| 
-------------------------|--------------------------|-------------------------| 
--3--3----3--3--3--3\----|--2--2--2--2--5--2--2--2--|--6--2--2--2--7----7--7--| 
--1--1----1--1--1--1\----|--0--0--0--0--3--0--0--0--|--4--0--0--0--5----5--5--| 
 


  PM PM PM PM    PM PM PM       PM PM PM               PM PM PM PM    PM PM PM 
 
   E  E  E  E  E  E  E  E     E  E  E  E  Q    E  E     E  E  E  E  E  E  E  E 
--------------------------|-------------------------|--------------------------| 
--------------------------|-------------------------|--------------------------| 
--------------------------|-------------------------|--------------------------| 
--------------------------|-------------------------|--------------------------| 
--2--2--2--2--5--2--2--2--|--6--2--2--2--3----3--3--|--2--2--2--2--5--2--2--2--| 
--0--0--0--0--3--0--0--0--|--4--0--0--0--1----1--1--|--0--0--0--0--3--0--0--0--| 
 


     PM PM PM               PM PM PM PM    PM PM PM       PM PM PM 
 
   E  E  E  E  Q    E  E     E  E  E  E  E  E  E  E     E  E  E  E  Q    E  E 
-------------------------|--------------------------|-------------------------| 
-------------------------|--------------------------|-------------------------| 
-------------------------|--------------------------|-------------------------| 
-------------------------|--------------------------|-------------------------| 
--6--2--2--2--7----7--7--|--2--2--2--2--5--2--2--2--|--6--2--2--2--3----3--3--| 
--4--0--0--0--5----5--5--|--0--0--0--0--3--0--0--0--|--4--0--0--0--1----1--1--| 
 


  PM PM PM PM PM PM PM PM 
  E  E  E  E  E  E  E  Q       E  Q    E  E  E  Q 
 
----------------------------|-------------------------| 
----------------------------|-------------------------| 
----------------------------|-------------------------| 
----------------------------|-------------------------| 
--2--2--2--2--2--2--2--2----|--7--7----7--7--7--7/----| 
--0--0--0--0--0--0--0--0----|--5--5----5--5--5--5/----| 
 


  PM PM PM PM PM PM PM PM 
  E  E  E  E  E  E  E  Q       E  Q    E  E  E  Q 
 
----------------------------|-------------------------| 
----------------------------|-------------------------| 
----------------------------|-------------------------| 
----------------------------|-------------------------| 
--2--2--2--2--2--2--2--2----|--3--3----3--3--3--3\----| 
--0--0--0--0--0--0--0--0----|--1--1----1--1--1--1\----| 
 


  PM PM PM PM PM PM PM PM 
  E  E  E  E  E  E  E  Q       E  Q    E  E  E  Q 
 
----------------------------|-------------------------| 
----------------------------|-------------------------| 
----------------------------|-------------------------| 
----------------------------|-------------------------| 
--2--2--2--2--2--2--2--2----|--7--7----7--7--7--7/----| 
--0--0--0--0--0--0--0--0----|--5--5----5--5--5--5/----| 
 


  PM PM PM PM PM PM PM PM 
  E  E  E  E  E  E  E  Q       E  Q    E  E  E  Q 
 
----------------------------|-------------------------| 
----------------------------|-------------------------| 
----------------------------|-------------------------| 
----------------------------|-------------------------| 
--2--2--2--2--2--2--2--2----|--3--3----3--3--3--3\----| 
--0--0--0--0--0--0--0--0----|--1--1----1--1--1--1\----| 
 


  PM PM PM PM PM PM PM PM 
  E  E  E  E  E  E  E  Q       E  Q    E  E  E  Q 
 
----------------------------|-------------------------| 
----------------------------|-------------------------| 
----------------------------|-------------------------| 
----------------------------|-------------------------| 
--2--2--2--2--2--2--2--2----|--7--7----7--7--7--7/----| 
--0--0--0--0--0--0--0--0----|--5--5----5--5--5--5/----| 
 


  PM PM PM PM PM PM PM PM 
  E  E  E  E  E  E  E  Q       E  Q    E  E  E  Q 
 
----------------------------|-------------------------| 
----------------------------|-------------------------| 
----------------------------|-------------------------| 
----------------------------|-------------------------| 
--2--2--2--2--2--2--2--2----|--3--3----3--3--3--3\----| 
--0--0--0--0--0--0--0--0----|--1--1----1--1--1--1\----| 
 


  PM PM PM PM PM PM PM PM 
  E  E  E  E  E  E  E  Q       E  Q    E  E  E  Q 
 
----------------------------|-------------------------| 
----------------------------|-------------------------| 
----------------------------|-------------------------| 
----------------------------|-------------------------| 
--2--2--2--2--2--2--2--2----|--7--7----7--7--7--7/----| 
--0--0--0--0--0--0--0--0----|--5--5----5--5--5--5/----| 
 


  PM PM PM PM PM PM PM PM              PM PM PM PM PM PM PM PM 
  E  E  E  E  E  E  E  Q               E  E  E  E  E  E  E  Q 
 
----------------------------|-------|----------------------------| 
----------------------------|-------|----------------------------| 
----------------------------|-------|----------------------------| 
----------------------------|-------|----------------------------| 
--2--2--2--2--2--2--2--2----|-------|--2--2--2--2--2--2--2--2----| 
--0--0--0--0--0--0--0--0----|-------|--0--0--0--0--0--0--0--0----| 
 


                            PM PM PM PM PM PM PM PM 
  E  Q    E  E  E  Q        E  E  E  E  E  E  E  Q 
 
-------------------------|----------------------------| 
-------------------------|----------------------------| 
-------------------------|----------------------------| 
-------------------------|----------------------------| 
--7--7----7--7--7--7/----|--2--2--2--2--2--2--2--2----| 
--5--5----5--5--5--5/----|--0--0--0--0--0--0--0--0----| 
 


                            PM PM PM PM PM PM PM PM 
  E  Q    E  E  E  Q        E  E  E  E  E  E  E  Q 
 
-------------------------|----------------------------| 
-------------------------|----------------------------| 
-------------------------|----------------------------| 
-------------------------|----------------------------| 
--3--3----3--3--3--3\----|--2--2--2--2--2--2--2--2----| 
--1--1----1--1--1--1\----|--0--0--0--0--0--0--0--0----| 
 


                            PM PM PM PM PM PM PM PM 
  E  Q    E  E  E  Q        E  E  E  E  E  E  E  Q 
 
-------------------------|----------------------------| 
-------------------------|----------------------------| 
-------------------------|----------------------------| 
-------------------------|----------------------------| 
--7--7----7--7--7--7/----|--2--2--2--2--2--2--2--2----| 
--5--5----5--5--5--5/----|--0--0--0--0--0--0--0--0----| 
 


  E  Q    E  E  E  Q        S S S S S S S S S S S S S S S S 
 
-------------------------|----------------------------------| 
-------------------------|----------------------------------| 
-------------------------|----------------------------------| 
-------------------------|----------------------------------| 
--3--3----3--3--3--3\----|--7-7-7-7-7-7-7-7-7-7-7-7-7-7-7-7-| 
--1--1----1--1--1--1\----|----------------------------------| 
 


  S S S S S S S S S S S S S S S S     S S S S S S S S S S S S S S S S 
 
-----------------------------------|----------------------------------| 
-----------------------------------|----------------------------------| 
-----------------------------------|----------------------------------| 
-----------------------------------|----------------------------------| 
--7-7-7-7-7-7-7-7-7-7-7-7-7-7-7-7S-|--9-9-9-9-9-9-9-9-9-9-9-9-9-9-9-9-| 
-----------------------------------|----------------------------------| 
 


  S S S S S S S S S S S S S S S S 
 
-----------------------------------| 
-----------------------------------| 
-----------------------------------| 
-----------------------------------| 
--9-9-9-9-9-9-9-9-9-9-9-9-9-9-9-9S-| 
-----------------------------------| 
 


   S  S  S  S  S  S  S  S  S  S  S  S  S  S  S  S 
 
--------------------------------------------------| 
--------------------------------------------------| 
--------------------------------------------------| 
--------------------------------------------------| 
--10-10-10-10-10-10-10-10-10-10-10-10-10-10-10-10-| 
--------------------------------------------------| 
 


   S  S  S  S  S  S  S  S  S  S  S  S  S  S  S  S 
 
---------------------------------------------------| 
---------------------------------------------------| 
---------------------------------------------------| 
---------------------------------------------------| 
--10-10-10-10-10-10-10-10-10-10-10-10-10-10-10-10S-| 
---------------------------------------------------| 
 


   S  S  S  S  S  S  S  S  S  S  S  S  S  S  S  S 
 
--------------------------------------------------| 
--------------------------------------------------| 
--------------------------------------------------| 
--------------------------------------------------| 
--12-12-12-12-12-12-12-12-12-12-12-12-12-12-12-12-| 
--------------------------------------------------| 
 


   S  S  S  S  S  S  S  S  S  S  S  S  S  S  S  S 
 
---------------------------------------------------| 
---------------------------------------------------| 
---------------------------------------------------| 
---------------------------------------------------| 
--12-12-12-12-12-12-12-12-12-12-12-12-12-12-12-12S-| 
---------------------------------------------------| 
 


   S  S  S  S  S  S  S  S  S  S  S  S  S  S  S  S 
 
--------------------------------------------------| 
--------------------------------------------------| 
--------------------------------------------------| 
--------------------------------------------------| 
--14-14-14-14-14-14-14-14-14-14-14-14-14-14-14-14-| 
--------------------------------------------------| 
 


   S  S  S  S  S  S  S  S  S  S  S  S  S  S  S  S 
 
--------------------------------------------------| 
--------------------------------------------------| 
--------------------------------------------------| 
--------------------------------------------------| 
--14-14-14-14-14-14-14-14-14-14-14-14-14-14-14-14-| 
--------------------------------------------------| 
 


   S  S  S  S  S  S  S  S  S  S  S  S  S  S  S  S 
 
--------------------------------------------------| 
--------------------------------------------------| 
--------------------------------------------------| 
--------------------------------------------------| 
--15-15-15-15-15-15-15-15-15-15-15-15-15-15-15-15-| 
--------------------------------------------------| 
 


   S  S  S  S  S  S  S  S  S  S  S  S  S  S  S  S  S 
 
-----------------------------------------------------| 
-----------------------------------------------------| 
-----------------------------------------------------| 
-----------------------------------------------------| 
--15-15-15-15-15-15-15-15-15-15-15-15-15-15-15-15-15-| 
-----------------------------------------------------| 
 


   S  S  S  S  S  S  S  S  S  S  S  S  S  S  S  S 
 
--------------------------------------------------| 
--------------------------------------------------| 
--------------------------------------------------| 
--------------------------------------------------| 
--17-17-17-17-17-17-17-17-17-17-17-17-17-17-17-17-| 
--------------------------------------------------| 
 


   S  S  S  S  S  S  S  S  S  S  S  S  S  S  S  S 
 
--------------------------------------------------| 
--------------------------------------------------| 
--------------------------------------------------| 
--------------------------------------------------| 
--17-17-17-17-17-17-17-17-17-17-17-17-17-17-17-17-| 
--------------------------------------------------| 
 


   S  S  S  S  S  S  S  S  S  S  S  S  S  S  S  S 
 
--------------------------------------------------| 
--------------------------------------------------| 
--------------------------------------------------| 
--------------------------------------------------| 
--19-19-19-19-19-19-19-19-19-19-19-19-19-19-19-19-| 
--------------------------------------------------| 
 


                                                                   NH 
   S  S  S  S  S  S  S  S  S  S  S  S  S  S  S  S     Q      E     H 
 
--------------------------------------------------|----------------------------| 
--------------------------------------------------|----------------------------| 
--------------------------------------------------|----------------------------| 
--------------------------------------------------|-------------<>19br~--------| 
--19-19-19-19-19-19-19-19-19-19-19-19-19-19-19-19-|--19S----17-----------------| 
--------------------------------------------------|----------------------------| 
 


                NH                           NH 
   Q      E     H               Q      E     H 
 
----------------------------|----------------------------| 
----------------------------|----------------------------| 
----------------------------|----------------------------| 
-------------<>19br~--------|-------------<>19br~--------| 
--19S----17-----------------|--19S----17-----------------| 
----------------------------|----------------------------| 
 


                NH                           NH 
   Q      E     H               Q      E     H 
 
----------------------------|----------------------------| 
----------------------------|----------------------------| 
----------------------------|----------------------------| 
-------------<>19br~--------|-------------<>19br~--------| 
--19S----17-----------------|--19S----17-----------------| 
----------------------------|----------------------------| 
 


                NH 
   Q      E     H 
 
----------------------------| 
----------------------------| 
----------------------------| 
-------------<>19br~--------| 
--19S----17-----------------| 
----------------------------| 
 


   |-3-|  |--3-| |-3-| |-3-| |-3-| |-3-| |-3-| |-3-| 
   S S S  S  S S S S S S S S S S S S S S S S S S S S 
 
--17-0-0-12-17-0-0-7-8-7-5-3-2-0-3-2-3-0-------0-3-2-| 
-----------------------------------------7-8-7-------| 
-----------------------------------------------------| 
-----------------------------------------------------| 
-----------------------------------------------------| 
-----------------------------------------------------| 
 


                                           W         PM PM PM PM    PM PM PM 
  |-3-| |-3-| |-3-| |-3-| |-3-| |-3-| |----| 
 
   S S S S S S S S S S S S S S S S S S E    Q         E  E  E  E  E  E  E  E 
--3-2-0---3-2-----3-2-----3-2---5-----------------|--------------------------| 
--------7-----0-7-----0-3-----0---3-2-0--<>5br----|--------------------------| 
--------------------------------------------------|--------------------------| 
--------------------------------------------------|--------------------------| 
--------------------------------------------------|--2--2--2--2--5--2--2--2--| 
--------------------------------------------------|--0--0--0--0--3--0--0--0--| 
 


     PM PM PM               PM PM PM PM    PM PM PM 
 
   E  E  E  E  Q    E  E     E  E  E  E  E  E  E  E 
-------------------------|--------------------------| 
-------------------------|--------------------------| 
-------------------------|--------------------------| 
-------------------------|--------------------------| 
--6--2--2--2--7----7--7--|--2--2--2--2--5--2--2--2--| 
--4--0--0--0--5----5--5--|--0--0--0--0--3--0--0--0--| 
 


     PM PM PM        TH        PM PM PM PM    PM PM PM 
 
   E  E  E  E  Q      Q         E  E  E  E  E  E  E  E 
----------------------------|--------------------------| 
----------------------------|--------------------------| 
----------------------------|--------------------------| 
----------------------------|--------------------------| 
--6--2--2--2--3-------------|--2--2--2--2--5--2--2--2--| 
--4--0--0--0--1----<>1b~----|--0--0--0--0--3--0--0--0--| 
 


     PM PM PM               PM PM PM PM    PM PM PM       PM PM PM 
 
   E  E  E  E  Q    E  E     E  E  E  E  E  E  E  E     E  E  E  E  Q    E  E 
-------------------------|--------------------------|-------------------------| 
-------------------------|--------------------------|-------------------------| 
-------------------------|--------------------------|-------------------------| 
-------------------------|--------------------------|-------------------------| 
--6--2--2--2--7----7--7--|--2--2--2--2--5--2--2--2--|--6--2--2--2--3----3--3--| 
--4--0--0--0--5----5--5--|--0--0--0--0--3--0--0--0--|--4--0--0--0--1----1--1--| 
 


  PM PM PM PM    PM PM PM       PM PM PM               PM PM PM PM    PM PM PM 
 
   E  E  E  E  E  E  E  E     E  E  E  E  Q    E  E     E  E  E  E  E  E  E  E 
--------------------------|-------------------------|--------------------------| 
--------------------------|-------------------------|--------------------------| 
--------------------------|-------------------------|--------------------------| 
--------------------------|-------------------------|--------------------------| 
--2--2--2--2--5--2--2--2--|--6--2--2--2--7----7--7--|--2--2--2--2--5--2--2--2--| 
--0--0--0--0--3--0--0--0--|--4--0--0--0--5----5--5--|--0--0--0--0--3--0--0--0--| 
 


     PM PM PM               PM PM PM PM    PM PM PM       PM PM PM 
 
   E  E  E  E  Q    E  E     E  E  E  E  E  E  E  E     E  E  E  E  Q    E  E 
-------------------------|--------------------------|-------------------------| 
-------------------------|--------------------------|-------------------------| 
-------------------------|--------------------------|-------------------------| 
-------------------------|--------------------------|-------------------------| 
--6--2--2--2--3----3--3--|--2--2--2--2--5--2--2--2--|--6--2--2--2--7----7--7--| 
--4--0--0--0--1----1--1--|--0--0--0--0--3--0--0--0--|--4--0--0--0--5----5--5--| 
 


  PM PM PM PM    PM PM PM       PM PM PM 
 
   E  E  E  E  E  E  E  E     E  E  E  E  Q    E  E 
--------------------------|-------------------------| 
--------------------------|-------------------------| 
--------------------------|-------------------------| 
--------------------------|-------------------------| 
--2--2--2--2--5--2--2--2--|--6--2--2--2--3----3--3--| 
--0--0--0--0--3--0--0--0--|--4--0--0--0--1----1--1--| 
 


  PM PM PM PM PM PM PM PM 
  E  E  E  E  E  E  E  Q       E  Q    E  E  E  Q 
 
----------------------------|-------------------------| 
----------------------------|-------------------------| 
----------------------------|-------------------------| 
----------------------------|-------------------------| 
--2--2--2--2--2--2--2--2----|--7--7----7--7--7--7/----| 
--0--0--0--0--0--0--0--0----|--5--5----5--5--5--5/----| 
 


  PM PM PM PM PM PM PM PM 
  E  E  E  E  E  E  E  Q       E  Q    E  E  E  Q 
 
----------------------------|-------------------------| 
----------------------------|-------------------------| 
----------------------------|-------------------------| 
----------------------------|-------------------------| 
--2--2--2--2--2--2--2--2----|--3--3----3--3--3--3\----| 
--0--0--0--0--0--0--0--0----|--1--1----1--1--1--1\----| 
 


  PM PM PM PM PM PM PM PM 
  E  E  E  E  E  E  E  Q       E  Q    E  E  E  Q 
 
----------------------------|-------------------------| 
----------------------------|-------------------------| 
----------------------------|-------------------------| 
----------------------------|-------------------------| 
--2--2--2--2--2--2--2--2----|--7--7----7--7--7--7/----| 
--0--0--0--0--0--0--0--0----|--5--5----5--5--5--5/----| 
 


  PM PM PM PM PM PM PM PM 
  E  E  E  E  E  E  E  Q       E  Q    E  E  E  Q 
 
----------------------------|-------------------------| 
----------------------------|-------------------------| 
----------------------------|-------------------------| 
----------------------------|-------------------------| 
--2--2--2--2--2--2--2--2----|--3--3----3--3--3--3\----| 
--0--0--0--0--0--0--0--0----|--1--1----1--1--1--1\----| 
 


  PM PM PM PM PM PM PM PM 
  E  E  E  E  E  E  E  Q       E  Q    E  E  E  Q 
 
----------------------------|-------------------------| 
----------------------------|-------------------------| 
----------------------------|-------------------------| 
----------------------------|-------------------------| 
--2--2--2--2--2--2--2--2----|--7--7----7--7--7--7/----| 
--0--0--0--0--0--0--0--0----|--5--5----5--5--5--5/----| 
 


  PM PM PM PM PM PM PM PM 
  E  E  E  E  E  E  E  Q       E  Q    E  E  E  Q 
 
----------------------------|-------------------------| 
----------------------------|-------------------------| 
----------------------------|-------------------------| 
----------------------------|-------------------------| 
--2--2--2--2--2--2--2--2----|--3--3----3--3--3--3\----| 
--0--0--0--0--0--0--0--0----|--1--1----1--1--1--1\----| 
 


  PM PM PM PM PM PM PM PM 
  E  E  E  E  E  E  E  Q       E  Q    E  E  E  Q 
 
----------------------------|-------------------------| 
----------------------------|-------------------------| 
----------------------------|-------------------------| 
----------------------------|-------------------------| 
--2--2--2--2--2--2--2--2----|--7--7----7--7--7--7/----| 
--0--0--0--0--0--0--0--0----|--5--5----5--5--5--5/----| 
 


  PM PM PM PM PM PM PM PM              PM PM PM PM PM PM PM PM 
  E  E  E  E  E  E  E  Q               E  E  E  E  E  E  E  Q 
 
----------------------------|-------|----------------------------| 
----------------------------|-------|----------------------------| 
----------------------------|-------|----------------------------| 
----------------------------|-------|----------------------------| 
--2--2--2--2--2--2--2--2----|-------|--2--2--2--2--2--2--2--2----| 
--0--0--0--0--0--0--0--0----|-------|--0--0--0--0--0--0--0--0----| 
 


                            PM PM PM PM PM PM PM PM 
  E  Q    E  E  E  Q        E  E  E  E  E  E  E  Q 
 
-------------------------|----------------------------| 
-------------------------|----------------------------| 
-------------------------|----------------------------| 
-------------------------|----------------------------| 
--7--7----7--7--7--7/----|--2--2--2--2--2--2--2--2----| 
--5--5----5--5--5--5/----|--0--0--0--0--0--0--0--0----| 
 


                            PM PM PM PM PM PM PM PM 
  E  Q    E  E  E  Q        E  E  E  E  E  E  E  Q 
 
-------------------------|----------------------------| 
-------------------------|----------------------------| 
-------------------------|----------------------------| 
-------------------------|----------------------------| 
--3--3----3--3--3--3\----|--2--2--2--2--2--2--2--2----| 
--1--1----1--1--1--1\----|--0--0--0--0--0--0--0--0----| 
 


                            PM PM PM PM PM PM PM PM 
  E  Q    E  E  E  Q        E  E  E  E  E  E  E  Q 
 
-------------------------|----------------------------| 
-------------------------|----------------------------| 
-------------------------|----------------------------| 
-------------------------|----------------------------| 
--7--7----7--7--7--7/----|--2--2--2--2--2--2--2--2----| 
--5--5----5--5--5--5/----|--0--0--0--0--0--0--0--0----| 
 


  E  Q    E  E  E  Q 
 
-------------------------|-------|-------|-------|-------|| 
-------------------------|-------|-------|-------|-------|| 
-------------------------|-------|-------|-------|-------|| 
-------------------------|-------|-------|-------|-------|| 
--3--3----3--3--3--3\----|-------|-------|-------|-------|| 
--1--1----1--1--1--1\----|-------|-------|-------|-------|| 
 




Duration Legend 
 
--------------- 
 
W - whole 
H - half 
Q - quarter 
E|- 8th 
S - 16th 
T - 32nd 
X - 64th 
. - note dotted 
|-n-|  - n-tuplets 


Tablature Legend 
- 
--------------- 
 
L - tied note 
x - dead note 
G|- grace note 
(n) - ghost note 
> - accentuded note 
NH - natural harmonic 
AH - artificial harmonic 
TH - tapped harmonic 
SH - semi harmonic 
PH - pitch harmonic 
h - hammer on 
p - pull off 
B|- bend 
br - bendRelease 
pb - preBend 
pbr - preBendRelease 
brb - bendReleaseBend 
\n/ - tremolo bar dip 
\n - tremolo bar dive 
-/n - tremolo bar Release up 
/n\ - tremolo bar inverted dip 
/n - tremolo bar return 
-\n - tremolo bar Release down 
S - shift slide 
s - legato slide 
/ -  slide into from below or out of upwards 
\ -  slide into from above or out of downwards 
~ - vibrato 
W - wide vibrato 
tr - trill 
TP - tremolo picking 
T - tapping 
S - slap 
P - pop 
< - fade in 
^ - brush up 
v - brush down 
		  

See also:

tabs Deep Purple - Perfect Strangers tabs Deep Purple - Smoke on the water (intro) tabs Ira! - Nucleo De Base tabs Deep Purple - Smoke on the Water (solo) tabs Ira! - Flerte Fatal (intro e solo) tabs Deep Purple - Smoke On The Water
e-chords

Other versions:

tabs Folkslave - Whisky, Putas E Cigarro
auto scroll beats size up size down change color hide chords drawings
tab show chords e-chords YouTube Clip e-chords hide all tabs e-chords go to top tab

share