Fogaša

home > Fogaša

Vento negro Tab

Fogaša

Difficulty: BeginnerBeginner

by guitarrista%5F15

tuner correct add songbook print version text version save to e-mail
chordsukulelecavacokeyboardtabbassdrumsharmonicsflute Guitar Pro
chords

Vento negro

  		     D                                       C    
e||----------0-2---|-3-2-0-----|---2-3-2-3-|-5-3-3-2-3-|-3-2-0-------| 
B||:---0-2-3-----3-|-------3-2-|-3---------|-----------|-------3-2-0-| 
G||--3-------------|-----------|-----------|-----------|-------------| 
D||----------------|-----------|-----------|-----------|-------------| 
   G                       D 
e|---------2-|-7-7-7-5-3-|-3-2-2-3-2--||-3-2-0---------|-3-|| 
B|---0-2-3---|-8-8-8-7-5-|-5-3-3-5-3-:||-------3-2-0---|-2-|| 
G|-3---------|-----------|------------||-------------3-|-3-|| 
D|-----------|-----------|------------||---------------|---|| 
 

	  

Full key step upFull key step up
Half key step upHalf key step up
Half key step downHalf key step down
Full key step downFull key step down
Search Paypal
auto scroll beats size up size down change color hide chords drawings
tab show chords e-chords YouTube Clip e-chords hide all tabs e-chords go to top tab