Fobia

Hipnotizame

Fobia

tabs Expert expert

by  ROB_FERRIN

save to print version add songbook text version e-mail correct tuner
chordsukulelecavacokeyboardtabbassdrumsharmonicaflute Guitar Pro
close

there isn't a video lesson for this song

chords

Hipnotizame

	  		
 
Intro: (tocar riff 1) 
 
Verse: 
  (con riff 1) 
Pude cerrar los ojos, mas no pude dejar de verte 
  (con riff 2)      
Y dejar de dormir, mas no dejar de soñar 
  (con riff 1) 
Puedo callar las voces, mas no puedo dejar de oirte 
  (con riff 2) 
Puedo dejar de ser, pero no puedo dejar de estar 
 
Chorus: 
 C   D/F#      Am  Fmaj7             C 
Besame....Hipnotizame.....Ya no me importa mas 
          G 
Robame el alma hechizame 
 
 
El segundo verso es igual que el primero pero va acompañado  
por una guitarra acustica que toca el siguiente riff: 
 
                                         Escucha con cuidado 
                                         el numero de veces 
                                         que se toca esta seccion 
e)|---0-------0---------0-------0-----| |---0----5--3--0----| 
b)|-----3------3----------3------3----| |-----3-------------|   
g)|--------2-----------------2--------| |-------------------| 
d)|-----------------------------------| |-------------------| 
a)|-----------------------------------| |-------------------|   
e)|-----------------------------------| |-------------------| 
 
2nd Chorus: Igual que el primero pero se toca 2 veces. 
 
Bridge:  Am*  F*  C*  Am*  F*  C*  (Em*) C*  Em*  F* 
 
Solo:  C  D/F#   Am   Fmaj7   C    G 
 
 
Chorus: igual que el segundo. 
 
Outro: C  G  C  G  C  G  C 
 
 
riff 1:                                   esta seccion se  
                                          toca 2 veces 
e)|-------------------------------------|-----------------| 
b)|---------------------3-0--3-0-3--(0)-|-----------------|   
g)|---0-2----2---2----0----0------------|-------0---------| 
d)|-0----------0------------------------|---4-------4---4-| 
a)|-------4---------0-------------------|-2---2---2---2---|   
e)|-------------------------------------|-----------------| 
 
riff 2: 
e)|-------------------------------------|---------------------| 
b)|---------------------3-0--3-0-3--(0)-|---------------------|   
g)|---0-2----2---2----0----0------------|--------------0------| 
d)|-0----------0------------------------|---0-0-0-0--0---0-0--| 
a)|-------4---------0-------------------|---------------------|   
e)|-------------------------------------|-2--2-2-2--3-3-3-3----| 
 
Acordes usados: 
      C    D/F#   Am  Fmaj7  G    Am*  F*  C*  Em* 
e) |--0-----0-----0-----0----3-----x---x---x----x----| 
b) |--1-----3-----1-----1----3-----x---x---x----x----|   
g) |--0-----2-----2-----2----0-----x---x---5----x----| 
d) |--2-----0-----2-----3----0-----7---3---5----2----| 
a) |--3-----0-----0-----3----2-----7---3---3----2----|   
e) |--0-----2-----x-----x----3-----5---1---x----0----| 
 
Espero que te sirva de ayuda esta tablatura, pienso que no hay errores en los acordes. 
Comentarios o dudas E-mail a: [email protected] 
 
 
Tabbed by: Roberto "guerrero de carton" Ferrin 
		  

Full key step upFull key step up
Half key step upHalf key step up
Half key step downHalf key step down
Full key step downFull key step down
hide glossary

See also:

tabs Ansia - La Vida Es Como Una Colina tabs RBD - Salvame (ver. 2) tabs RBD - Este Corazón tabs RBD - El Mundo Detrás tabs Alan - Inevitable tabs Camila - U Got My Love
e-chords

Other versions:

tabs Fobia - Hipnotizame
auto scroll beats size up size down change color hide chords drawings
tab show chords e-chords YouTube Clip e-chords hide all tabs e-chords go to top tab

share