Flow

Answer

Flow

tabs Easy easy

by  UBIRBOMFIM

save to print version add songbook text version e-mail correct tuner
chordsukulelecavacokeyboardtabbassdrumsharmonicaflute Guitar Pro
close

there isn't a video lesson for this song

chords

Answer

	  		
Intro 
e|----------------------------------------| 
B|----------------------------------------| 
G|-------------------------------7-5------| X2 
D|---5--7-7---5--7-7---7-7--5-7------5-7--| 
A|---------------------7-7----------------| 
E|---------------------5-5----------------| 

e|------------------------------------------------| 
B|------------------------------------------------| 
G|--7-9h-p9--5-h7-p7------------------5-----------| 
D|-------------------5-h7--------5--7-----7--5--7-| 
A|-------------------------5--7-------------------| 
E|------------------------------------------------| 

e|------------------------------------------------| 
B|------------------------------------8---8-10----| 
G|-7-9h-p9--5-h7-p7--------4-5------9---9---------| 
D|-------------------5-h7-------7-7---------------| 
A|------------------------------------------------| 
E|------------------------------------------------| 

e|------------------------------------------------| 
B|------------------------------------------------| 
G|--7-9h-p9--5-h7-p7------------------5-----------| 
D|-------------------5-h7-------5--7-----7--5--7--| 
A|------------------------5--7--------------------| 
E|------------------------------------------------| 

e|----------------------------------------------------10--8-| 
B|-------------------------------------------8---8-10-------| 
G|-7-9h-p9--5-h7-p7------------5-7-----9---9----------------| 
D|-------------------5-h7--5-7------7-----------------------| 
A|----------------------------------------------------------| 
E|----------------------------------------------------------| 

Verse 
e|-------0----------0---------0---------0----| 
B|-----0---1------0---1-----0---3-----0---1--| 
G|---2----------2---------4---------2--------| X3 & 1/2 
D|-2----------3---------5---------2----------| 
A|-------------------------------------------| 
E|-------------------------------------------| 

Pre chorus 
e|----00000000---00---00--| 
B|----33333333---55---55--| 
G|----44444444---66---66--| 
D|----55555555---77---77--| 
A|------------------------| 
E|------------------------| 

Chorus 
e|-------------| 
B|-------------| 
G|------2--5---| 
D|-3--5-2--5---| x 3 &1/2 
A|-3--5-0--3---| 
E|-1--3--------| 

Post Chorus 
e|------------| 
B|------------| 
G|-33333333---| 
D|-33333333---| 
A|-11111111---| 
E|------------| 

Bridge 
e|-----------| 
B|-----------| 
G|-3--2-3----| 
D|-3--2-3--2-| 
A|-1--0-1--2-| 
E|---------0-| 
 
		  

See also:

tabs Death Note - Death Image tabs Luna Sea - Jesus tabs Flow - Answer tabs Elfen Lied - Lilium tabs Does - Guren tabs Death Note - Light's Theme
e-chords

Other versions:

tabs Flow - Answer tabs Tyler, The Creator - Answer tabs Sugar Ray - Answer The Phone tabs Thrice - Answered tabs Deftones - Answers tabs Steve Vai - Answers
auto scroll beats size up size down change color hide chords drawings
tab show chords e-chords YouTube Clip e-chords hide all tabs e-chords go to top tab

share