Florrie

Live A Little

Florrie

tabs

by  BOMBAXXX

save to print version add songbook text version e-mail correct tuner
chordsukulelecavacokeyboardtabbassdrumsharmonicaflute Guitar Pro
close

there isn't a video lesson for this song

chords

Live A Little

	  		

Intro riff: 

E|--------------------------------| 
B|--------------------------------| 
G|--------------------------------| 
D|--------------------------------| 
A|--------------------------------| 
E|--4--4--4--4--4--4--4--0--2--3--| (x2) 

E|--------------------------------| 
B|--------------------------------| 
G|--------------------------------| 
D|--------------------------------| 
A|--------------------------------| 
E|--7----7--7--7--10--9--0--2--3--| 

E|--------------------------------| 
B|--------------------------------| 
G|--------------------------------| 
D|--------------------------------| 
A|--------------------------------| 
E|--4--4--4--4--4--4--4--0--2--3--| 

(do with syncopation to the trumpets every time this riff below comes up) 

E|-----------------------------------| 
B|-----------------------------------| 
G|-----------------------------------| 
D|-----------------------------------| 
A|-----------------------------------| 
E|--4--4--4--2--2--0--0--0--7--7--6--| (x3) 

E|-----------------------------------| 
B|-----------------------------------| 
G|-----------------------------------| 
D|-----------------------------------| 
A|-----------------------------------| 
E|--4--4--4--2--2--0-----7-----6-----| 

E|--------------------------------| 
B|--------------------------------| 
G|--------------------------------| 
D|--------------------------------| 
A|--------------------------------| 
E|--4--4--4--4--4--4--4--0--2--3--| 

E|--------------------------------| 
B|--------------------------------| 
G|--------------------------------| 
D|--------------------------------| 
A|--------------------------------| 
E|--4--4--4--4--4--------0--2--3--| 

Verse: 

Luckily I got a book of tricks 
Know what I gotta do to get my kicks 
Cos I've read every single page 
And I wouldn't say I'm crazy but 

E|--------------------------------| 
B|--------------------------------| 
G|--------------------------------| 
D|--------------------------------| 
A|--------------------------------| 
E|--4--4--4--4--4--4--4--0--2--3--| (x2) 

If you look in my eye 
You might be surprised 

E|--------------------------------| 
B|--------------------------------| 
G|--------------------------------| 
D|--------------------------------| 
A|--------------------------------| 
E|--7----7--7--7--10--9--0--2--3--| 

I get a little dangerous 
I get a little dangerous 

E|--------------------------------| 
B|--------------------------------| 
G|--------------------------------| 
D|--------------------------------| 
A|--------------------------------| 
E|--4--4--4--4--4--4--4--0--2--3--| 

Chorus: 

We gotta live a little, be naughty but nice 
Just to give a little 
A freak show show let's live a little 
I'm gonna get what I want, so give a little 
We gotta live a little, be naughty but nice 
Just to give a little 

E|-----------------------------------| 
B|-----------------------------------| 
G|-----------------------------------| 
D|-----------------------------------| 
A|-----------------------------------| 
E|--4--4--4--2--2--0--0--0--7--7--6--| (x3) 

A freak show show let's live a little 
I'm gonna get what I want, so give a little 

E|-----------------------------------| 
B|-----------------------------------| 
G|-----------------------------------| 
D|-----------------------------------| 
A|-----------------------------------| 
E|--4--4--4--2--2--0-----7-----6-----| 

We're about to break 
And I don't know how much more of this 
You can take 
I wanna see the animal in you escape 
Oh can you feel the fire burning 
Through your veins 

E|-----------------------------------| 
B|-----------------------------------| 
G|-----------------------------------| 
D|-----------------------------------| 
A|-----------------------------------| 
E|--4--4--4--2--2--0--0--0--7--7--6--| (x3) 

You're about to break 

E|-----------------------------------| 
B|-----------------------------------| 
G|-----------------------------------| 
D|-----------------------------------| 
A|-----------------------------------| 
E|--4--4--4--2--2--0-----7-----6-----| 

Bridge: 

E|--------------------------------------------------------------| 
B|--------------------------------------------------------------| 
G|--------------------------------------------------------------| 
D|--------------------------------------------------------------| 
A|-----4--6--6--6-----4--6--6--6-----4--6--6--6-----4--6--6--6--| 
E|--4--------------4--------------4--------------4--------------| 

E|--------------------------------------------------------------| 
B|--------------------------------------------------------------| 
G|--------------------------------------------------------------| 
D|--------------------------4--6--------------------------4--6--| 
A|-----4--6--6--6-----4--6-----------4--6--6--6-----4--6--------| 
E|--4--------------4--------------4--------------4--------------| 

Chorus: 

We gotta live a little, be naughty but nice 
Just to give a little 
A freak show show let's live a little 
I'm gonna get what I want, so give a little 
We gotta live a little, be naughty but nice 
Just to give a little 

E|-----------------------------------| 
B|-----------------------------------| 
G|-----------------------------------| 
D|-----------------------------------| 
A|-----------------------------------| 
E|--4--4--4--2--2--0--0--0--7--7--6--| (x3) 

A freak show show let's live a little 
I'm gonna get what I want, so give a little 

E|-----------------------------------| 
B|-----------------------------------| 
G|-----------------------------------| 
D|-----------------------------------| 
A|-----------------------------------| 
E|--4--4--4--2--2--0-----7-----6-----| 

We're about to break 
And I don't know how much more of this 
You can take 
I wanna see the animal in you escape 
Oh can you feel the fire burning 
Through your veins 

E|-----------------------------------| 
B|-----------------------------------| 
G|-----------------------------------| 
D|-----------------------------------| 
A|-----------------------------------| 
E|--4--4--4--2--2--0--0--0--7--7--6--| (x3) 

You're about to break 

E|-----------------------------------| 
B|-----------------------------------| 
G|-----------------------------------| 
D|-----------------------------------| 
A|-----------------------------------| 
E|--4--4--4--2--2--0-----7-----6-----| 

Outro: 

E|--------------------------------| 
B|--------------------------------| 
G|--------------------------------| 
D|--------------------------------| 
A|--------------------------------| 
E|--4--4--4--4--4--4--4--0--2--3--| (x2) 

E|--------------------------------| 
B|--------------------------------| 
G|--------------------------------| 
D|--------------------------------| 
A|--------------------------------| 
E|--7----7--7--7--10--9--0--2--3--| 

You're about to break 

E|--------------------------------| 
B|--------------------------------| 
G|--------------------------------| 
D|--------------------------------| 
A|--------------------------------| 
E|--4--4--4--4--4--4--4--0--2--3--| 
		  

auto scroll beats size up size down change color hide chords drawings
tab show chords e-chords YouTube Clip e-chords hide all tabs e-chords go to top tab

share