save to print version add songbook text version e-mail correct tuner
chordsukulelecavacokeyboardtabbassdrumsharmonicaflute Guitar Pro
close

there isn't a video lesson for this song

chords

Wicked Ways

	  		
Guitars 1 and 2 (w/ dist) 

 B|-------------------------------------------| 
F#|-------------------------------------------| 
 D|-------------------------------------------| x3 
 A|-------------------------------------------| 
 E|---------2-----2--------2-----2------------| 
 B|-6-6-6s--0-----0-----0--0-----0---3h5--6~~~| 
                        * 
 B|-------------------------------------------| 
F#|-------------------------------------------| 
 D|-------------------------------------------| 
 A|-------------------------------------------| 
 E|---------2-----2--------------2-----2------| 
 B|-6-6-6s--0-----0------6-6-6s--0-----0------| 

                                           -------------| 
 B|---------------------------------------------|       | 
F#|---------------------------------------------|       | 
 D|---------------------------------------------| x3    | 
 A|---------------------------------------------|       | 
 E|---------2-----2--------2-----2--------------|       | 
 B|-6-6-6s--0-----0-----0--0-----0---0--3--5p0--|       | 
                        *            *  *               | x2 
 B|------------------------------------|                | 
F#|------------------------------------|                | 
 D|-7s9---9s10---10s9---9s7---7s9-9s10-|                | 
 A|-x-x---x-x----x--x---x-x---x-x-x-x--|                | 
 E|-5s7---7s8----8-s7---7s5---5s7-7s8--|                | 
 B|-----0------0------0-----0----------|                | 
        *      *      *     *      ---------------------| 

----------------------------------------------------------------------------------------- 
                                    VERSE (00:30-00:50) 
----------------------------------------------------------------------------------------- 

Guitars 1 and 2 (w/ dist) 

                                           -------------| 
 B|---------------------------------------------|       | 
F#|---------------------------------------------|       | 
 D|---------------------------------------------| x3    | 
 A|---------------------------------------------|       | 
 E|---------2-----2--------2-----2--------------|       | 
 B|-6-6-6s--0-----0-----0--0-----0---0--3--5p0--|       | 
                        *            *  *               | x2 
 B|------------------------------------|                | 
F#|------------------------------------|                | 
 D|-7s9---9s10---10s9---9s7---7s9-9s10-|                | 
 A|-x-x---x-x----x--x---x-x---x-x-x-x--|                | 
 E|-5s7---7s8----8-s7---7s5---5s7-7s8--|                | 
 B|-----0------0------0-----0----------|                | 
        *      *      *     *      ---------------------| 

----------------------------------------------------------------------------------------- 
                                  Pre-Chorus (00:50-00:55) 
----------------------------------------------------------------------------------------- 

Guitar 1 (w/ dist) 

 B|-------------------------------------|-----------------------------------| 
F#|-------------------------------------|--------------------------7-5------| 
 D|-------------------------------------|------------------------------7-6--| 
 A|-5-5----5-5----5-5----5-5----5-5-5-5-|-7-7----7-7----7-7----4------------| 
 E|-5-5----5-5----5-5----5-5----5-5-5-5-|-7-7----7-7----7-7----4------------| 
 B|-3-3----3-3----3-3----3-3----3-3-3-3-|-5-5----5-5----5-5----2------------| 

Guitar 2 (w/ dist) 

 B|-------------------------------------|-----------------------------------| 
F#|-------------------------------------|-----------------------------------| 
 D|-------------------------------------|--------------------------7-6------| 
 A|-5-5----5-5----5-5----5-5----5-5-5-5-|-7-7----7-7----7-7----4-------9-7--| 
 E|-5-5----5-5----5-5----5-5----5-5-5-5-|-7-7----7-7----7-7----4------------| 
 B|-3-3----3-3----3-3----3-3----3-3-3-3-|-5-5----5-5----5-5----2------------| 
  
----------------------------------------------------------------------------------------- 
                                    Chorus (00:55-01:15) 
----------------------------------------------------------------------------------------- 

Guitars 1 and 2 (w/ dist) 
                                                                ------------| 
 B|----------------------------|------------------------------------|       | 
F#|----------------------------|------------------------------------|       | 
 D|----------------------------|------------------------------------|       | 
 A|----------------------------|------------------------------------|       | 
 E|-9----9--------7------------|-4-------------5---5--5---5---------|       | 
 B|-7----7--5--5--5------5--5--|-2----2--2--2--3---3--3---3---5--5--|       | 
            *  *           *  *       *  *  *  *   *          *  *          | x2 
 B|----------------------------|--------------------------------------|     | 
F#|----------------------------|--------------------------------------|     | 
 D|---------------6------------|--------------------------------------|     | 
 A|---------------x------------|-7---7---7---7--7--7s9--9---9---9--9--|     | 
 E|-9----9--------7------------|-5---5---5---5--5--5s7--7---7---7--7--|     | 
 B|-7----7--5--5--5------5--5--|--------------------------------------|     | 
            *  *         *  *                *  *               *  * -------| 

Guitar 3 (w/ dist) 

E|---------------------------|----------------------| 
B|---------------------------|-7----7-----8-----10--| 
G|------7--6-----------------|-x----x-----x-----x---| 
D|-9----------9--7------7h9--|-4----4-----5-----7---| 
A|---------------------------|----------------------| 
E|---------------------------|----------------------| 

E|----------------------|------------------------| 
B|----------------------|------------------------| 
G|------7---------------|-7----7----7s9--9---9---| 
D|-9-------9--7--6------|------------------------| 
A|----------------------|------------------------| 
E|----------------------|------------------------| 

----------------------------------------------------------------------------------------- 
                                    verse 2 (01:15-01:45) 
----------------------------------------------------------------------------------------- 

Guitars 1 and 2 (w/ dist) 

                                           -------------| 
 B|---------------------------------------------|       | 
F#|---------------------------------------------|       | 
 D|---------------------------------------------| x3    | 
 A|---------------------------------------------|       | 
 E|---------2-----2--------2-----2--------------|       | 
 B|-6-6-6s--0-----0-----0--0-----0---0--3--5p0--|       | 
                        *            *  *               | x3 
 B|------------------------------------|                | 
F#|------------------------------------|                | 
 D|-7s9---9s10---10s9---9s7---7s9-9s10-|                | 
 A|-x-x---x-x----x--x---x-x---x-x-x-x--|                | 
 E|-5s7---7s8----8-s7---7s5---5s7-7s8--|                | 
 B|-----0------0------0-----0----------|                | 
        *      *      *     *      ---------------------| 

----------------------------------------------------------------------------------------- 
                                  Pre-Chorus 2 (01:45-01:50) 
----------------------------------------------------------------------------------------- 
                                     same as Pre-Chorus 
----------------------------------------------------------------------------------------- 
                                    Chorus 2 (01:50-02:10) 
----------------------------------------------------------------------------------------- 
                                       same as Chorus 
----------------------------------------------------------------------------------------- 
                                     BRIDGE (02:10-02:30) 
----------------------------------------------------------------------------------------- 

Guitars 1 and 2 (w/ dist) 

 B|-----------------------------------------------| 
F#|-----------------------------------------------| 
 D|-----------------------------------------------| x8 
 A|-----------------------------------------------| 
 E|-4---4-----4-----4--4-----4--4-----4-----4--5--| 
 B|-2---2--0--2--0--2--2-----2--2--0--2--0--2--3--| 
        *  *  *  *  *  *     *  *  *  *  *  *  * 
      
----------------------------------------------------------------------------------------- 
                                    Chorus 3 (02:30-02:50) 
----------------------------------------------------------------------------------------- 
                                       same as Chorus 
----------------------------------------------------------------------------------------- 
                                    OUTRO (02:50-03:07) 
----------------------------------------------------------------------------------------- 

Guitars 1 and 2 (w/ dist) 

 B|-----------------------------------------------| 
F#|-----------------------------------------------| 
 D|-----------------------------------------------| x4 
 A|-----------------------------------------------| 
 E|-4---4-----4-----4--4-----4--4-----4-----4--5--| 
 B|-2---2--0--2--0--2--2-----2--2--0--2--0--2--3--| 
        *  *  *  *  *  *     *  *  *  *  *  *  * 

 B|--------| 
F#|--------| 
 D|--------| 
 A|-4------| 
 E|-4------| 
 B|-2------| 

************************************ 

| *   palm mute 
| s   slide up 
| h   hammer-on 
| p   pull-off 
| ~   vibrato 
| x   Mute note 

************************************ 
		  

See also:

tabs Manowar - Battle Hymn tabs Pantera - Cemetery Gates tabs Pantera - Cowboys from hell (intro) tabs Marilyn Manson - Coma White (Acoustic) tabs Pantera - This Love tabs Seether - Careless Whisper
e-chords

Other versions:

tabs Five Finger Death Punch - Wicked Ways
auto scroll beats size up size down change color hide chords drawings
tab show chords e-chords YouTube Clip e-chords hide all tabs e-chords go to top tab

share