save to print version add songbook text version e-mail correct tuner
chordsukulelecavacokeyboardtabbassdrumsharmonicaflute Guitar Pro
close

there isn't a video lesson for this song

chords

Devils Own

	  		 

Riff 1 (w/ dist and delay) 

 B|---------------------|----------------------------|-----------------------| 
F#|---------------------|----------------------------|-----------------------| 
 D|---------------------|----------------------------|-----------------------| 
 A|---------------------|----------------------------|-----------------------| 
 E|-1-s-7----7---7---7--|-7---7-------7---7---7---7--|-5----5s7-------7---7--| 
 B|---------------------|----------------------------|-----------------------| 


 B|---------------------------|------------------------|---------------------------| 
F#|---------------------------|------------------------|---------------------------| 
 D|---------------------------|------------------------|---------------------------| 
 A|---------------------------|------------------------|---------------------------| 
 E|-7---7-------7---7---7---7-|-10---10s12------12--12-|-12--12-----12--12--12--12-| 
 B|---------------------------|------------------------|---------------------------| 


 B|---------------------------------|------------------------------------------| 
F#|---------------------------------|------------------------------------------| 
 D|---------------------------------|------------------------------------------| 
 A|---------------------------------|------------------------------------------| 
 E|-12--12--12s10--10--10--10--10---|-10--10--10s-7---7---7---7---7s-5---5-----| 
 B|---------------------------------|------------------------------------------| 

Riff 2 (w/ dist) Rhythm guitar 

 B|---------------------|-----------------------|---------------------| 
F#|---------------------|-----------------------|---------------------| 
 D|-9-------------------|-----------------------|-9-------------------| 
 A|-9-------------------|---------------9---9---|-9-------------------| 
 E|-7-------------------|---------------7---7---|-7-------------------| 
 B|---------------------|-----------------------|---------------------| 
                                        *   *  
 B|---------------------|-----------------------|---------------------| 
F#|---------------------|-----------------------|---------------------| 
 D|-5-------------------|-----------------------|---------------------| 
 A|-5-------------------|-----------------------|-7--------5----------| 
 E|-3-------------------|-----------------------|-7--------5----------| 
 B|---------------------|---------------0---0---|-5--------3----------| 
                                        *   * 
Riff 2 (w/ dist) Rhythm guitar fill 1 

 B|---------------------|-----------------------|---------------------| 
F#|---------------------|-----------------------|---------------------| 
 D|-9-------------------|-----------------------|-9-------------------| 
 A|-9-------------------|---------------9---9---|-9-------------------| 
 E|-7-------------------|---------------7---7---|-7-------------------| 
 B|---------------------|-----------------------|---------------------| 
                                        *   * 
 B|---------------------|-----------------------|----------------------------| 
F#|---------------------|-----------------------|----------------------------| 
 D|-5-------------------|-----------------------|----------------------------| 
 A|-5-------------------|-----------------------|-7--------------------------| 
 E|-3-------------------|-----------------------|-7--------------------------| 
 B|---------------------|---------------0---0---|-5--5-5---5-3-3---3-3-3---3-| 
                                        *   *        * *   * * *   * * *   * 

Riff 2 (w /dist) Lead guitar 

 B|---------------------------------|---------------------------------| 
F#|---------------------------------|---------------------------------| 
 D|---------------------------------|---------------------------------| 
 A|-----------------9---------------|-----------------9---------------| 
 E|-7---7-h-9-h-10------10--9---10--|-7---7-h-9-h-10------10--9---7---| 
 B|---------------------------------|---------------------------------| 
    *                                 * 
 B|---------------------------------|------------------------------| 
F#|---------------------------------|------------------------------| 
 D|---------------------------------|------------------------------| 
 A|-----------------9---------------|-----------------10--9--------| 
 E|-7---7-h-9-h-10------10--9---10--|-7---7-h-9-h-10----------10~~-| 
 B|---------------------------------|------------------------------| 
    *                                 * 
 B|---------------------------------|---------------------------------| 
F#|---------------------------------|---------------------------------| 
 D|---------------------------------|---------------------------------| 
 A|-----------------9---------------|-----------------9---------------| 
 E|-7---7-h-9-h-10------10--9---10--|-7---7-h-9-h-10------10--9---7---| 
 B|---------------------------------|---------------------------------| 
    *                                 * 
 B|------------------------------|------------------------------| 
F#|------------------------------|------------------------------| 
 D|------------------------------|------------------------------| 
 A|--------------7---------------|--------------5---------------| 
 E|-7----7---8-------8---7---8---|-5----5---7-------7---5---7---| 
 B|-5----------------------------|-3----------------------------| 
         *  *        *   *   *          *   *       *   *   * 

Riff 3 (w /dist) 

 B|---------------------------------|-------------------------------------| 
F#|---------------------------------|-------------------------------------| 
 D|---------------------------------|-------------------------------------| 
 A|---------------------------------|-------------------------------------| 
 E|---------------------------------|-------------------------------------| 
 B|-0-0-0----0-0-0----0----0-0-0----|-0-0-0--------0-0-0----0----0-0-0----| 
    * * *    * * *    *    * * *      * * *        * * *    *    * * *  

 B|---------------------------------|---------------------------------| 
F#|---------------------------------|---------------------------------| 
 D|---------------------------------|---------------------------------| 
 A|---------------------------------|---------------------------------| 
 E|---------------------------------|---------------------------------| 
 B|-0-0-0----0-0-0----0----0-0-0----|-0-2-3-2-5-3-2-0-5-3-2-0-5-3-2-3-| 
    * * *    * * *    *    * * *      * * * * * * * * * * * * * * * * 

Riff 4 (w /dist) 

 B|-----------------------------------|------------------------------------| 
F#|-----------------------------------|------------------------------------| 
 D|-----------------------------------|------------------5----4------------| 
 A|-2----------------2----------------|-2----------------5----4------------| 
 E|-2----------------2----------------|-2----------------3----2-------0----| 
 B|-0----0--0--0--0--0----0--0--0--0--|-0----0--0--0--0---------------0----| 
         *  *  *  *       *  *  *  *         *  *  *  *     
 B|-----------------------------------|------------------------------------| 
F#|-----------------------------------|------------------------------------| 
 D|-----------------------------------|------------------------------------| 
 A|-5----------------5----------------|-7----------------7----5-------4----| 
 E|-5----------------5----------------|-7----------------7----5-------4----| 
 B|-3----0--0--0--0--3----0--0--0--0--|-5----0--0--0--0--5----3-------2----| 
         *  *  *  *       *  *  *  *         *  *  *  *  *    *       * 

Riff 5 (w /dist) 

 B|---------------------------------|---------------------------------| 
F#|---------------------------------|-----------------10--------------| 
 D|-----9---11--12------9---11--12--|-----9---11--12------12--11--9---| 
 A|-9---------------9---------------|-9-------------------------------| 
 E|---------------------------------|---------------------------------| 
 B|---------------------------------|---------------------------------| 
    *               *                 * 

 B|---------------------------------|-----------------------------------| 
F#|-----10--12--13------10--12--13--|-----10--12--13--17---15------13---| 
 D|-12--------------12--------------|-12--------------------------------| 
 A|---------------------------------|-----------------------------------| 
 E|---------------------------------|-----------------------------------| 
 B|---------------------------------|-----------------------------------| 
    *               *                 * 

Riff 6 (w /dist)  

 B|----------------------|------------------------------------| 
F#|----------------------|------------------------------------| 
 D|-9~~-12--9--12--11--9-|------12--11--12--14--12--11--12p11-| 
 A|----------------------|------------------------------------| 
 E|----------------------|------------------------------------| 
 B|----------------------|------------------------------------| 

 B|----------------------|------------------------------------| 
F#|----------------------|------------------15----------------| 
 D|-9~~-12--9--12--11--9-|------12--11--12------12--11--12p11-| 
 A|----------------------|------------------------------------| 
 E|----------------------|------------------------------------| 
 B|----------------------|------------------------------------| 

 B|----------------------|------------------------------------| 
F#|----------------------|------------------------------------| 
 D|-9~~-12--9--12--11--9-|-----12--11--12--14--12--11--12-----| 
 A|----------------------|------------------------------------| 
 E|----------------------|------------------------------------| 
 B|----------------------|------------------------------------| 

 B|-------------------------------------|---------------------------------| 
F#|-12h13h15p13p12--10------------------|---------------------------------| 
 D|---------------------12--11--9-------|---------9---12--11--9-------9~~-| 
 A|---------------------------------12--|-9---12------------------12------| 
 E|-------------------------------------|---------------------------------| 
 B|-------------------------------------|---------------------------------| 

Riff 7 (w /dist) 

 B|-----------------------------------------|-----------------------------------------| 
F#|-----------------------------------------|-----------------------------------------| 
 D|-----------------------------------------|-----------------------------------------| 
 A|-----------------------------------------|-----------------------------------------| 
 E|-----------------------------------------|-----------------------------------------| 
 B|-0--0--0--0--0-------0--0--0--0--0-------|-0--0--0--0--0-------0--0--0--0--0-------| 
    *  *  *  *  *       *  *  *  *  *         *  *  *  *  *       *  *  *  *  * 

Riff 8 (w /dist) 

 B|-------------------------------------|-------------------------------------| 
F#|-------------------------------------|-------------------------------------| 
 D|-------------------------------------|-------------------------------------| 
 A|---------------------9---------------|---------------------9---------------| 
 E|-------------9---10------10--9---10--|-------------9---10------10--9~~~~---| 
 B|-0--0--0--0--------------------------|-0--0--0--0--------------------------| 
    *  *  *  *  *   *                     *  *  *  *  *   *         

 B|-------------------------------------|-------------------------------------| 
F#|-------------------------------------|-------------------------------------| 
 D|-------------------------------------|-------------------------------------| 
 A|---------------------9---------------|---------------------10--9-----------| 
 E|-------------9---10------10--9---10--|-------------9---10----------10~~~~--| 
 B|-0--0--0--0--------------------------|-0--0--0--0--------------------------| 
    *  *  *  *  *   *                     *  *  *  *  

Riff 9 (w /dist) 

 B|-------------------------------------|-------------------------------------| 
F#|-------------------------------------|-------------------------------------| 
 D|---------------------7---------------|---------------------7---------------| 
 A|-------------7---8-------8---7---8---|-------------7---8-------8---7~~~~---| 
 E|-0--0--0--0--------------------------|-0--0--0--0--------------------------| 
 B|-------------------------------------|-------------------------------------| 
    *  *  *  *  *   *                     *  *  *  *  *   * 

 B|-------------------------------------|-------------------------------------| 
F#|-------------------------------------|-------------------------------------| 
 D|---------------------7---------------|---------------------8---7-----------| 
 A|-------------7---8-------8---7---8---|-------------7---8-----------8~~~~---| 
 E|-0--0--0--0--------------------------|-0--0--0--0--------------------------| 
 B|-------------------------------------|-------------------------------------| 
    *  *  *  *  *  *                      *  *  *  * 

Riff 9 ending (w /dist) 

 B|------------------------------------|------------------------------------| 
F#|------------------------------------|------------------------------------| 
 D|------------------------------------|------------------------------------| 
 A|---------------------7--------------|---------------------5--------------| 
 E|-------------7---8-------8---7---8--|-------------5---7-------7---5---7--| 
 B|-5--5--5----------------------------|-3--3--3----------------------------| 
    *  *  *     *  *        *   *   *    *  *  *     *   *       *   *   * 
 B|------------------------------------|------------------------------------| 
F#|------------------------------------|------------------------------------| 
 D|------------------------------------|------------------------------------| 
 A|------------------------------------|------------------------------------| 
 E|-7-7-7-------7-7-7----7----7-7-7-7--|-7-7-7-------7-7-7----7----7-7-7-7--| 
 B|------------------------------------|------------------------------------| 
    * * *       * * *    *    * * * *    * * *       * * *    *    * * * * 

SONG STRUCTURE 

INTRO 
Riff 1 x1 

VERSE 
Riff 2 Rhythm guitar x2 + Riff 2 Lead guitar x2 
Riff 3 x4 

Chorus 
Riff 4 x2 
Riff 4 x2 + Riff 5 x2 
Riff 2 Rhythm guitar fill 1 x2 + Riff 6 x2 

verse 2 
Riff 3 x4 

Chorus 2 
Riff 4 x2 
Riff 4 x2 + Riff 5 x2 

BRIDGE 
Riff 7 x8 
Riff 7 x16 + Riff 8 x4 
Riff 9 x2 
Riff 9 ending x1 

Chorus 3 
Riff 4 x2 

OUTRO 
Riff 2 Rhythm guitar x2 + Riff 2 Lead guitar x2 


************************************ 

| s   slide 
| h   hammer-on 
| p   pull-off 
| ~   vibrato 
| *   palm mute 

************************************ 
		  

See also:

tabs Marilyn Manson - Sweet Dreams (complete) tabs Avenged Sevenfold - Heretic tabs Avenged Sevenfold - Hail To The King tabs Slayer - Seasons In The Abyss tabs Pantera - Walk tabs Avenged Sevenfold - Scream
e-chords

Other versions:

tabs Five Finger Death Punch - Devils Own
auto scroll beats size up size down change color hide chords drawings
tab show chords e-chords YouTube Clip e-chords hide all tabs e-chords go to top tab

share