Fink

Walking In The Sun

Fink

tabs

by  JOV-CORREA

save to print version add songbook text version e-mail correct tuner
chordsukulelecavacokeyboardtabbassdrumsharmonicaflute Guitar Pro
close

there isn't a video lesson for this song

chords

Walking In The Sun

	  		intro 
e|-----x------x------x------x------x---------------x------x-------------------| 
B|-----x------x------x------x------x---------------x------x-------------------| 
G|-----x------x------x------x------x---------------x------x-------------------| 
D|-----x------x------x------x------x------5p4h5-4--x------x-------------------| 
A|-----x------x------x------x------x---------------x------x-------------------| 
D|--0--x---0--x---5--x---5--x---0--x---0-----------x---0--x-------------------| 

e|-----x------x------x------x------x--------------x------x-------------------| 
B|-----x------x------x------x------x--------------x------x-------------------| 
G|-----x------x------x------x------x--------------x------x-------------------| 
D|-----x------x------x------x------x-----5p4h5-4--x------x-------------------| 
A|-----x------x------x------x------x--------------x------x-------------------| 
D|--0--x---0--x---5--x---5--x---0--x---0----------x---0--x-------------------| 

verse 1 
e|-----x------x------x------x------x---------------x------x-------------------| 
B|-----x------x------x------x------x---------------x------x-------------------| 
G|-----x------x------x------x------x---------------x------x-------------------| 
D|-----x------x------x------x------x------5p4h5-4--x------x-------------------| 
A|-----x------x------x------x------x---------------x------x-------------------| 
D|--0--x---0--x---5--x---5--x---0--x---0-----------x---0--x-------------------| 

e|-----x------x------x------x------x---------------x------x-------------------| 
B|-----x------x------x------x------x---------------x------x-------------------| 
G|-----x------x------x------x------x---------------x------x-------------------| 
D|-----x------x------x------x------x------5p4h5-4--x------x-------------------| 
A|-----x------x------x------x------x---------------x------x-------------------| 
D|--0--x---0--x---5--x---5--x---0--x---0-----------x---0--x-------------------| 

e|-----x------x------x------x------x---------------x--------------------------| 
B|-----x------x------x------x------x---------------x--------------------------| 
G|-----x------x------x------x------x---------------x--------------------------| 
D|-----x------x------x------x------x------5p4h5-4--x--------------------------| 
A|-----x------x------x------x------x---------------x---5-4-2-0----------------| 
D|--5--x---5--x---5--x---5--x---0--x---0-----------x--------------------------| 

e|-----x------x------x------x------x---------------x------x-------------------| 
B|-----x------x------x------x------x---------------x------x-------------------| 
G|-----x------x------x------x------x---------------x------x-------------------| 
D|-----x------x------x------x------x------5p4h5-4--x------x-------------------| 
A|--0--x--0-0-x---0--x--0-0-x------x---------------x------x-------------------| 
D|-----x------x------x------x---0--x---0-----------x---0--x-------------------| 

verse 2 
e|-----x------x------x------x------x---------------x------x-------------------| 
B|-----x------x------x------x------x---------------x------x-------------------| 
G|-----x------x------x------x------x---------------x------x-------------------| 
D|--4--x---4--x---0--x---0--x------x------5p4h5-4--x------x-------------------| 
A|--5--x---5--x---5--x---5--x------x---------------x------x-------------------| 
D|--0--x---0--x---5--x---5--x---0--x---0-----------x---0--x-------------------| 

e|-----x------x------x------x------x---------------x------x-------------------| 
B|-----x------x------x------x------x---------------x------x-------------------| 
G|-----x------x------x------x------x---------------x------x-------------------| 
D|--4--x---4--x---0--x---0--x------x------5p4h5-4--x------x-------------------| 
A|--5--x---5--x---5--x---5--x------x---------------x------x-------------------| 
D|--0--x---0--x---5--x---5--x---0--x---0-----------x---0--x-------------------| 

e|-----x------x------x------x------x---------------x--------------------------| 
B|-----x------x------x------x------x---------------x--------------------------| 
G|-----x------x------x------x------x---------------x--------------------------| 
D|--0--x------x------x------x------x------5p4h5-4--x--------------------------| 
A|--5--x------x------x------x------x---------------x---5-4-2-0----------------| 
D|--5--x---5--x---5--x---5--x---0--x---0-----------x--------------------------| 

e|-----x------x------x------x------x---------------x------x-------------------| 
B|-----x------x------x------x------x---------------x------x-------------------| 
G|-----x------x------x------x------x---------------x------x-------------------| 
D|-----x------x------x------x------x------5p4h5-4--x------x-------------------| 
A|--0--x--0-0-x---0--x--0-0-x------x---------------x------x-------------------| 
D|-----x------x------x------x---0--x---0-----------x---0--x-------------------| 

bridge 
e|---------------x------x------x-------x------x---------------x------x--------| 
B|---------------x------x------x-------x------x---------------x------x--------| 
G|---------------x------x------x-------x------x---------------x------x--------| 
D|---------------x------x------x--3bp0-x------x------5p4h5-4--x------x--------| 
A|-5-8p5-3p0-----x------x------x-------x------x---------------x------x--------| 
D|------------0--x---0--x---5--x--5----x---0--x---0-----------x---0--x--------| 

e|-----x------x------x-------x------x---------------x------x------------------| 
B|-----x------x------x-------x------x---------------x------x------------------| 
G|-----x------x------x-------x------x---------------x------x------------------| 
D|-----x------x------x--3bp0-x------x------5p4h5-4--x------x------------------| 
A|-8p5-x------x------x-------x------x---------------x------x------------------| 
D|-0---x---0--x---5--x--5----x---0--x---0-----------x---0--x------------------| 

e|-----x------x------x------x------x---------------x--------------------------| 
B|-----x------x------x------x------x---------------x--------------------------| 
G|-----x----0-x----0-x----0-x------x---------------x--------------------------| 
D|-----x----0-x----0-x----0-x------x------5p4h5-4--x--------------------------| 
A|-----x------x------x------x------x---------------x---5-4-2-0----------------| 
D|--5--x---5--x---5--x---5--x---0--x---0-----------x--------------------------| 

e|-----x------x------x---------------x------x---------------x------x----------| 
B|-----x------x------x---------------x------x---------------x------x----------| 
G|-----x------x------x---------------x------x---------------x------x----------| 
D|-----x------x------x---------------x------x------5p4h5-4--x------x----------| 
A|--0--x--0-0-x---0--x-8p5s3-5p3-3p0-x------x---------------x------x----------| 
D|-----x------x------x---------------x---0--x---0-----------x---0--x----------| 

verse 3 
e|-----x------x------x------x------x---------------x------x-------------------| 
B|-----x------x------x------x------x---------------x------x-------------------| 
G|-----x------x------x------x------x---------------x------x-------------------| 
D|-----x------x---0--x---0--x------x------5p4h5-4--x------x-------------------| 
A|-----x------x---5--x---5--x------x---------------x------x-------------------| 
D|--0--x---0--x---5--x---5--x---0--x---0-----------x---0--x-------------------| 

e|-----x------x------x------x------x---------------x------x-------------------| 
B|-----x------x------x------x------x---------------x------x-------------------| 
G|-----x------x------x------x------x---------------x------x-------------------| 
D|--4--x------x---0--x---0--x------x------5p4h5-4--x------x-------------------| 
A|--5--x------x---5--x---5--x------x---------------x------x-------------------| 
D|--0--x---0--x---5--x---5--x---0--x---0-----------x---0--x-------------------| 

e|-----x------x------x------x------x---------------x--------------------------| 
B|-----x------x------x------x------x---------------x--------------------------| 
G|-----x------x------x------x------x---------------x--------------------------| 
D|--0--x---0--x---0--x---0--x------x------5p4h5-4--x--------------------------| 
A|--5--x---5--x---5--x---5--x------x---------------x---5-4-2-0----------------| 
D|--5--x---5--x---5--x---5--x---0--x---0-----------x--------------------------| 

e|-----x------x------x------x------x---------------x------x------x------------| 
B|-----x------x------x------x------x---------------x------x------x------------| 
G|-----x------x------x------x------x---------------x------x------x------------| 
D|-----x------x------x------x------x------5p4h5-4--x------x------x----5p4h5-4-| 
A|--0--x--0-0-x---0--x--0-0-x------x---------------x------x------x------------| 
D|-----x------x------x------x---0--x---0-----------x---0--x---0--x--0---------| 

************************************ 

| /   slide up 
| \   slide down 
| h   hammer-on 
| p   pull-off 
| ~   vibrato 
| +   harmonic 
| x   Mute note 
| b   Bend 
| pb  Pre-bend 
| br  Bend release 
| pbr Pre-bend release 
| brb Bend release bend 

************************************ 
		  

See also:

tabs Chickenfoot - Last Temptation tabs Chickenfoot - No Change tabs Kylesa - Unknown Awareness tabs Chickenfoot - Dubai Blues tabs Kylesa - To Walk Alone
e-chords

Other versions:

tabs Fink - Walking In The Sun
auto scroll beats size up size down change color hide chords drawings
tab show chords e-chords YouTube Clip e-chords hide all tabs e-chords go to top tab

share