Finch

Worms Of The Earth

Finch

tabs

save to print version add songbook text version e-mail correct tuner
chordsukulelecavacokeyboardtabbassdrumsharmonicaflute Guitar Pro
close

there isn't a video lesson for this song

chords

Worms Of The Earth

	  		Tuning: Drop D + Half Step Down (Db Ab Db Gb)  
Tabbed By: [email protected] 
 
Intro 1: (Pickscrape For A Little Bit...Sounds Good) 
eb|-----| 
Bb|-----| 
Gb|-5~--|  
Db|-3~--|  
Ab|-3~--|  
Db|-3~--|  
 
Intro 2: 
eb|----------------------------------------------------------------| 
Bb|----------------------------------------------------------------| 
Gb|----------------------------------------------------------------|  
Db|-2-2-2-2-2-2-2-2--3-3-3-3--2-2-2-2--5-5-5-5-5-5-5-5-5-5-5-5-5-5-|  
Ab|-2-2-2-2-2-2-2-2--3-3-3-3--2-2-2-2--5-5-5-5-5-5-5-5-5-5-5-5-5-5-| 2x 
Db|-2-2-2-2-2-2-2-2--3-3-3-3--2-2-2-2--5-5-5-5-5-5-5-5-5-5-5-5-5-5-|  
 
eb|----------------------------------------------------------------| 
Bb|----------------------------------------------------------------| 
Gb|----------------------------------------------------------------|  
Db|-5-5-5-5-5-5-3-3-3-3-2-2-2-2-5-5-5-5-5-5-5-5-3-3-3-3-2-2-2-2--5-|  
Ab|-5-5-5-5-5-5-3-3-3-3-2-2-2-2-5-5-5-5-5-5-5-5-3-3-3-3-2-2-2-2--5-|  
Db|-5-5-5-5-5-5-3-3-3-3-2-2-2-2-5-5-5-5-5-5-5-5-3-3-3-3-2-2-2-2--5-|  
 
Verse: (guitar 1) 
eb|-----------------------------------------------| 
Bb|----------------------------10---10--10--------| 
Gb|-10-10-10-10-10-10-10-10------10--------10-----|  
Db|-8--8--8--8--8--8--8--8--------------------11--|  
Ab|-8--8--8--8--8--8--8--8------------------------|  
Db|-8--8--8--8--8--8--8--8------------------------| 
 
eb|---------------------------------------------9------9-----9---| 
Bb|---------------------------10---10--10---------10----10----10-| 
Gb|-10-10-10-10-10-10-10-10-----10--------10---------10----10----|  
Db|-8--8--8--8--8--8--8--8-------------------11------------------|  
Ab|-8--8--8--8--8--8--8--8---------------------------------------|  
Db|-8--8--8--8--8--8--8--8---------------------------------------|  
 
 
Verse: (guitar 2) 
eb|-----------------------------------------------------| 
Bb|-----------------------------------------------------| 
Gb|-10-10-10-10-10-10-10-10-10-10-10-10-10-10-10-10-10--|  
Db|-8--8--8--8--8--8--8--8--8--8--8--8--8--8--8--8--8---|  
Ab|-8--8--8--8--8--8--8--8--8--8--8--8--8--8--8--8--8---| 2x 
Db|-8--8--8--8--8--8--8--8--8--8--8--8--8--8--8--8--8---| 
 
 
Chorus: (guitar 2)  
eb|------------------------------| 
Bb|------------------------------| 
Gb|------------------------------| 
Db|-0--10--8--0--8--0--8--10-----|  
Ab|-0--10--8--0--8--0--8--10-----| 2x 
Db|-0--10--8--0--8--0--8--10-----| 
 
Interlude: 
eb|--------------------------------------| 
Bb|--------------------------------------| 
Gb|-------------5-5---------4-4----------|  
Db|-3~---3-2-0--5-5--3-2-0--4-4--3-0-3-0-|  
Ab|-3~---3-2-0--3-3--3-2-0--2-2--3-0-3-0-|  
Db|-3~---3-2-0-------3-2-0-------3-0-3-0-|  
 
Bridge: 
eb|---------------| 
Bb|---------------| 
Gb|---------------|  
Db|-3~---3~---0~~-|  
Ab|-3~---3~---0~~-|  
Db|-3~---3~---0~~-|  
 
 
Outro:  
eb|----------------------------------| 
Bb|----------------------------------| 
Gb|------------5-5---------4-4-------|  
Db|-3---3-2-0--5-5--3-2-0--4-4--3-3--|  
Ab|-3---3-2-0--3-3--3-2-0--2-2--3-3--|  
Db|-3---3-2-0-------3-2-0-------3-3--| 
 
End With: 
eb|-----| 
Bb|-----| 
Gb|-----|  
Db|-3-3-|  
Ab|-3-3-|  
Db|-3-3-|  
 
(http://www.sharpeningbeneath.com) 
 

		  

Full key step upFull key step up
Half key step upHalf key step up
Half key step downHalf key step down
Full key step downFull key step down
hide glossary

See also:

tabs The Beatles - All My Loving tabs The Beatles - And i love her(guitar full version) tabs Queen - Bohemian Rhapsody tabs Eagles - Hotel California tabs Eric Clapton - Cocaine (tab) tabs The Shadows - Apache
e-chords

Other versions:

tabs Finch - Worms Of The Earth
auto scroll beats size up size down change color hide chords drawings
tab show chords e-chords YouTube Clip e-chords hide all tabs e-chords go to top tab

share