Finch

Without you here ( Acústica )

Finch

tabs

by  DPS_FINCH

save to print version add songbook text version e-mail correct tuner
chordsukulelecavacokeyboardtabbassdrumsharmonicaflute Guitar Pro
close

there isn't a video lesson for this song

chords

Without you here ( Acústica )

	  		Artista: Finch 
Música: Without you here ( Acústica em Seattle ) 
 
Main Riff 
|-------------------------------------------| 
|-------------------------------------------| 
|-8--8--8--9--------------------------------| 
|-x--x--x--x--------------------------------| < x16 
|-6--4--6--7--------------------------------| 
|-------4-----------------------------------| 
 
Prechorus 
|-------------------------------------------| 
|-------------------------------------------| 
|-9/11/13/16--------------------------------| 
|-x/-x/-x/-x--------------------------------| < x8 
|-7/-9/11/14--------------------------------| 
|-------------------------------------------| 
 
Chorus 
|------------------------------------------------------------------| 
|------------------------------------------------------------------| 
|-4-4-4-4-4-4-4-4-4-4-4-4-4-4-4-4-8-8-8-8-8-8-8-8-3-3-3-3-3-3-3-3--| 
|-4-4-4-4-4-4-4-4-4-4-4-4-4-4-4-4-8-8-8-8-8-8-8-8-3-3-3-3-3-3-3-3--| 
|-2-2-2-2-2-2-2-2-2-2-2-2-2-2-2-2-6-6-6-6-6-6-6-6-1-1-1-1-1-1-1-1--| 
|------------------------------------------------------------------| 
 
..Chorus Continued 
|------------------------------------------------------------------| 
|------------------------------------------------------------------| 
|-4-4-4-4-x-x-x-x-4-4-4-4-4-4-4-4-8-8-8-8-8-8-8-8-3-3-3-3-3-3-3-3--| 
|-4-4-4-4-x-x-x-x-4-4-4-4-4-4-4-4-8-8-8-8-8-8-8-8-3-3-3-3-3-3-3-3--| 
|-2-2-2-2-x-x-x-x-2-2-2-2-2-2-2-2-6-6-6-6-6-6-6-6-1-1-1-1-1-1-1-1--| 
|------------------------------------------------------------------| 
 
Fill 
|-------------------------------------------| 
|-------------------------------------------| 
|---9---------------------------------------| 
|---x---------------------------------------| < x32 
|---7---------------------------------------| 
|-------------------------------------------| 
 
 
Ending Chorus 
|-------------------------------------------| 
|-------------------------------------------| 
|-----1-----1-------------------------------| 
|--4--2--6--2-------------------------------| < 16x 
|--4--2--6--2-------------------------------| 
|--2--0--4--0-------------------------------| 
 
 
Ending Chord 
|-------------------------------------------| 
|-------------------------------------------| 
|--4----------------------------------------| 
|--4----------------------------------------| 
|--2----------------------------------------| 
|--2----------------------------------------| 
 
 
Ordem pra tocar 
------------- 
Main Riff x4 
Prechorus x1 
Chorus x2 
Main Riff x4 
Prechorus x1 
Chorus x2 
Fill x1 
Ending Chorus x4 
Ending Chord x1 
------------- 
		  

See also:

tabs Deep Purple - Smoke on the Water (solo) tabs Billy Idol - White Wedding tabs The Beatles - All My Loving (Solo Real) tabs Coldplay - In My Place tabs The Rolling Stones - Angie tabs Fleetwood Mac - Albatross
e-chords

Other versions:

tabs Finch - Without You Here tabs Finch - Without you here ( Acústica )
auto scroll beats size up size down change color hide chords drawings
tab show chords e-chords YouTube Clip e-chords hide all tabs e-chords go to top tab

share