Finch

3 Simple Words

Finch

tabs

save to print version add songbook text version e-mail correct tuner
chordsukulelecavacokeyboardtabbassdrumsharmonicaflute Guitar Pro
close

there isn't a video lesson for this song

chords

3 Simple Words

	  		Tabber: Taking back Vd 
Tuning: Db Ab Db Gb Bb Eb 
 
Another wicked track on their albumn 
 
 
Intro 
 
      |--PM--|    |--PM--|    |--PM--|    |--PM--|    
|---------------------------------------------------------| 
|---------------------------------------------------------| 
|---6--6-6-6-6--4--4-4-4-4--------------------------------| 
|---6--6-6-6-6--4--4-4-4-4--4--4-4-4-4--2--2-2-2-2--------| 
|---4--4-4-4-4--2--2-2-2-2--4--4-4-4-4--2--2-2-2-2--------| 
|---------------------------4--4-4-4-4--2--2-2-2-2--------| 
 
|---------------------------------------------------------| 
|---------------------------------------------------------| 
|---6-6-6-6-6--4-4-4-4-4----------------------------------| 
|---6-6-6-6-6--4-4-4-4-4--4-4-4-4-4--2-2-2x-2x-2----------| 
|---4-4-4-4-4--2-2-2-2-2--4-4-4-4-4--2-2-2x-2x-2----------| 
|-------------------------4-4-4-4-4--2-2-2x-2x-2----------| 
 
Verse 
(Plam mute the chords but let the single notes ring) 
 
|--------------------------------------------------------------------| 
|--------------------------------------------------------------------| 
|---6-6-----6-6-6-----4-4-----4-4-4----------------------------------| 
|---6-6-----6-6-6-----4-4-----4-4-4-----4-4-4---4-4-----2-2-2x-2x-2--| 
|---4-4-4h6-4-4-4-4h6-2-2-2h4-2-2-2-2h4-4-4-4---4-4-----2-2-2x-2x-2--| 
|---------------------------------------4-4-4h6-4-4-4h6-2-2-2x-2x-2--| 
 
Chorus 
 
|----------------------------------------| 
|----------------------------------------| 
|------------6-6-6-6---------------------| 
|----7-7-7-7-6-6-6-6-2-2-2-2-4-4-4-4-----| 
|----7-7-7-7-4-4-4-4-2-2-2-2-4-4-4-4-----| 
|----7-7-7-7---------2-2-2-2-4-4-4-4-----| 
 
Middle 8 
(palm mute this bit) 
|--------------------------------------------------| 
|--------------------------------------------------| 
|---6-6--------6-6---------6-6-----------6-6-------| 
|---6-6--------6-6---------6-6-----------6-6-------| 
|---4-4--------4-4---------4-4-----------4-4-------| 
|--------------------------------------------------| 
 
Middle 8 continued 
(Not sure about this bit) 
 
|---------0--0--------0--0--------0--0--------0--0-------0--0--| 
|---------0--0--------0--0--------0--0--------0--0-------0--0--| 
|---6--6--6--6--6--6--6--6--6--6--6--6--6--6--6--6--6-6--6--6--| 
|---6--6--6--6--6--6--6--6--6--6--6--6--6--6--6--6--6-6--6--6--| 
|---4--4--4--4--4--4--4--4--4--4--4--4--4--4--4--4--4-4--4--4--| 
|--------------------------------------------------------------| 
 
 
Break down 
|-------------------------------------------------------| 
|-------------------------------------------------------| 
|----6-6x6-6x6-6----------------------------------------| 
|----6-6x6-6x6-6-2-2x2-2-2-2--7-7x7-7x7-7-2-2x-2-2-2-2--| 
|----4-4x4-4x4-4-2-2x2-2-2-2--7-7x7-7x7-7-2-2x-2-2-2-2--| 
|----------------2-2x2-2-2-2--7-7x7-7x7-7-2-2x-2-2-2-2--| 
 
End on.. 
 
|-------| 
|-------| 
|-------| 
|--6~---| 
|--0~---| 
|--0~---| 
 
I think you can figure out when to play each part and how many times you play it, its pretty easy 
 

		  

Full key step upFull key step up
Half key step upHalf key step up
Half key step downHalf key step down
Full key step downFull key step down
hide glossary

See also:

tabs Deep Purple - Smoke on the Water (solo) tabs Billy Idol - White Wedding tabs The Beatles - All My Loving (Solo Real) tabs Coldplay - In My Place tabs The Rolling Stones - Angie tabs Fleetwood Mac - Albatross
e-chords

Other versions:

tabs Finch - 3 Simple Words tabs Finch - 3 Simple Words (ver. 2)
auto scroll beats size up size down change color hide chords drawings
tab show chords e-chords YouTube Clip e-chords hide all tabs e-chords go to top tab

share