Fight Or Flight

If It Hurts

Fight Or Flight

tabs

by  ALEFFEDERICO

save to print version add songbook text version e-mail correct tuner
chordsukulelecavacokeyboardtabbassdrumsharmonicaflute Guitar Pro
close

there isn't a video lesson for this song

chords

If It Hurts

	  		

Riff 1 w/ wah filter 
D#|--------------------------------------------------------| 
A#|--------------------------------------------------------| 
F#|--------------------------------------------------------| 
C#|--------------------------------------------------------| 
G#|--------/7--------/7-----/7-----------------------------| 
C#|-0-0--0----0-0--0----0-0----10-10-10-10-8--5-5-5-5-7--1-| 

Riff 2 
D#|--------------------------------------------------------| 
A#|--------------------------------------------------------| 
F#|--------------------------------------------------------| 
C#|----------------------------10-10-10-10-8--5-5-5-5-7--1-| 
G#|--------/7--------/7-----/7-10-10-10-10-8--5-5-5-5-7--1-| 
C#|-0-0--0----0-0--0----0-0----10-10-10-10-8--5-5-5-5-7--1-| 

Riff 3   "From every thought to every step..." 
D#|--------------------------------------------------------------------| 
A#|--------------------------------------------------------------------| 
F#|--------------------------------------------------------------------| 
C#|--------------------------------------------------------------------| 
G#|--------/7--------/7-----/7-----------------------------------------| 
C#|-0-0--0----0-0--0----0-0----10-10-10-10-10-10-10-10-8-8-8-8-8-8-8-8-| 
    * *  *    * *  *    * *    *  *  *  *  *  *  *  *  * * * * * * * * 

Play Riff 3 x2   "I never thought I'd be the one..." 

Riff 4   "Are you the hand for the weak or the hopeful..." 
D#|----------------------| 
A#|----------------------| 
F#|----------------------| 
C#|------------3p1-1-1-1-| 
G#|-0100-0-0-0-3p1-1-1-1-| 
C#|-0100-0-0-0-3p1-1-1-1-| 
    **** * * * 

Play Riff 4 x2 

Riff 5   "If it hurts you to see..." 
D#|---------------------------------------------| 
A#|---------------------------------------------| 
F#|---------------------------------------------| 
C#|-0--0--0-0-10--10--10-10-3--3--3-3-5--5--5-5-| 
G#|-0--0--0-0-8---8---8--8--3--3--3-3-5--5--5-5-| 
C#|-0--0--0-0-8---8---8--8--3--3--3-3-5--5--5-5-| 

Play Riff 5 x2 

Riff 6   "Do you feel control..." 
D#|----------------------------------------------------------| 
A#|----------------------------------------------------------| 
F#|----------------------------------------------------------| 
C#|-8--8-8--8-8-8-8-8h10-10-10-10-10-10-8h10-10-8h10-10-8h10-| 
G#|-8--8-8--8-8-8-8-8h10-10-10-10-10-10-8h10-10-8h10-10-8h10-| 
C#|-8--8-8--8-8-8-8-8h10-10-10-10-10-10-8h10-10-8h10-10-8h10-| 

Fill 1 
D#|----------------------------| 
A#|----------------------------| 
F#|----------------------------| 
C#|----------------------------| 
G#|--------/7--------/7-----/7-| 
C#|-0-0--0----0-0--0----0-0----| 

Play Riff 3 x2   "I chase the love..." 
Play Riff 4 x2   "Are the hand for the weak or the hopeful..." 
Play Riff 5 x2   "If it hurts you to see..." 
Play Riff 6 x1   "Do you feel control..." 

Riff 7   "No way!!" 
D#|-------------------------------------------| 
A#|-------------------------------------------| 
F#|-------------------------------------------| 
C#|-------------------------------------------| 
G#|-5h6p5-------3h6p5---5h6p5-----------------| 
C#|-------0-0-0-------0-------0-3h5p3-0-5h6p5-| 
          * * *       *       *       * 

D#|-------------------------------------| 
A#|-------------------------------------| 
F#|-------------------------------------| 
C#|-------------------------------------| 
G#|-5h6p5---6h8p6---5h6p5---------6-5-6-| 
C#|-------0-------0-------0-0-0-0-6-5-6-| 
          *       *       * * * * 
 
		  

See also:

tabs Deep Purple - Black Night tabs Deep Purple - Soldier Of Fortune tabs Deep Purple - Demon's Eye tabs Ira! - Envelheço na Cidade tabs Deep Purple - Smoke on the Water (correct) tabs Ira! - Tarde Vazia (Acústico)
e-chords

Other versions:

tabs Fight Or Flight - If It Hurts
auto scroll beats size up size down change color hide chords drawings
tab show chords e-chords YouTube Clip e-chords hide all tabs e-chords go to top tab

share