Fides In Us

Vacan't Hearts

Fides In Us

tabs nolevel nolevel

by  AMAN_CLAUDINO

save to print version add songbook text version e-mail correct tuner
chordsukulelecavacokeyboardtabbassdrumsharmonicaflute Guitar Pro
close

there isn't a video lesson for this song

chords

Vacan't Hearts

	  		------------------------------------------------------------------------------- 
                             Vacant Hearts - Fides In Us 
------------------------------------------------------------------------------- 
Tabbed by: Ryan Easterwood 
E-mail: [email protected] 

Tuning:CGCFAD 

|---------------------------------------------------------------------------| 
|---------------------------------------------------------------------------| 
|---------------------------------------------------------------------------| 
|---------------------------------------------------------------------------| 
|------0-0--0-------------0-0-0-0--0--------------------0--0--0-------------| 
|------0-0--0--0--12--0---0-0-0-0--0---12--0--12--0-----0--0--0--12--0------| 
        . .  .             . . . .  .                    .  .  . 
|----------------------------------| 
|----------------------------------| 
|----------------------------------| 
|----------------------------------| X3 
|-----0-0-0-0--------------0-------| 
|-----0-0-0-0---0---12--0--0-------| 
       . . . .              . 
|---------------------------------------------------------------------------| 
|---------------------------------------------------------------------------| 
|---------------------------------------------------------------------------| 
|---------------------------------------------------0-----------------------|X2 
|-----0--0--0--------000-------2-2-2-2-0-0-0-0-0----4---0-0-0-0-------------| 
|-----0--0--0---11---000---00--3-3-3-3-1-1-1-1-1--------1-1-1-1-------------| 
       .  .  .        ...   ..  . . . . . . . . .        . . . . 
|---------------------------------------------------------------------------| 
|---------------------------------------------------------------------------| 
|---------------------------------------------------------------------------| 
|---------------------------------------------------------------------------| 
|------0-0--0-------------0-0-0-0--0--------------------0--0--0-------------| 
|------0-0--0--0--12--0---0-0-0-0--0---12--0--12--0-----0--0--0--12--0------| 
        . .  .             . . . .  .                    .  .  . 
|----------------------------------| 
|----------------------------------| 
|----------------------------------| 
|----------------------------------| 
|-----0-0-0-0----------------------| 
|-----0-0-0-0---0---12--0----------| 

|---------------------------------------------------------------------------| 
|---------------------------------------------------------------------------| 
|----10---------------------------------------------------------------------| 
|----10----5----7----9----3-------------------------------------------------| 
|----8-----5----7----9----3----88--888-8888888888---55--555--5555555555-----| 
|----8-----5----7----9----3----88--888-8888888888---55--555--5555555555-----| 
                                ..  ... ..........   ..  ...  ..........   
|---------------------------------------------------------------------------| 
|---------------------------------------------------------------------------| 
|---------------------------------------------------------------------------| 
|---------------------------------------------------------------------------| 
|----77--777--7777777777---9-9-9-9---3-3-3-3-3-3-3-3--1-1-1-1-1-1-1-1-------| 
|----77--777--7777777777---9-9-9-9---3-3-3-3-3-3-3-3--1-1-1-1-1-1-1-1-------| 
      ..  ...  .......... 
|------------------------------------| 
|------------------------------------| 
|------------------------------------| 
|------------------------------------|X7 
|----0-0---000000---00-----000000----| 
|----0-0---000000---00--0--000000----| 
      . .   ......   ..     ...... 
|---------------------------------------------------------------------------| 
|-----------------------------------------------7---------------------------| 
|-----------------------------------------------10--------------------------| 
|---------------------------------------------------------------------------|X2 
|----00---00000---00-----------00---00000---00---------00-------------------| 
|----00---00000---00-----------00---00000---00-------0-00-------------------| 
      ..   .....   ..           ..   .....   ..         .. 
|------------------------------------| 
|------------------------------------| 
|------------------------------------| 
|------------------------------------|X3 
|----0-0---000000---00-----000000----| 
|----0-0---000000---00--0--000000----| 
      . .   ......   ..     ...... 
|---------------------------------------------------------------------------| 
|---------------------------------------------------------------------------| 
|----10---------------------------------------------------------------------| 
|----10----5----7----9----3-------------------------------------------------| 
|----8-----5----7----9----3----88--888-8888888888---55--555--5555555555-----| 
|----8-----5----7----9----3----88--888-8888888888---55--555--5555555555-----| 
                                ..  ... ..........   ..  ...  ..........   
|---------------------------------------------------------------------------| 
|---------------------------------------------------------------------------| 
|---------------------------------------------------------------------------| 
|---------------------------------------------------------------------------| 
|----77--777--7777777777---9-9-9-9---3-3-3-3-3-3-3-3--1-1-1-1-1-1-1-1-------| 
|----77--777--7777777777---9-9-9-9---3-3-3-3-3-3-3-3--1-1-1-1-1-1-1-1-------| 

|---------------------------------------------------------------------------| 
|---------------------------------------------------------------------------| 
|---------------------------------------------------------------------------| 
|---------------------------------------------------------------------------| 
|---------------------------------------------------------------------------| 
|---------------------------------------------------------------------------| 

|------------------------------------------------| 
|------------------------------------------------| 
|------------------------------------------------| 
|------------------------------------------------|X2 
|----00-----000---00000---0---00000--000---------| 
|----00--0--000---00000---0---00000--000---------| 
      ..     ...   .....   .   .....  ...  
|---------------------------------------------------------------------------| 
|---------------------------------------------------------------------------| 
|---------------------------------------------------------------------------| 
|---------------------------------------------------------------------------| 
|---------0-0-0-0----------0-0-0-0---0---0-0-0-0--0--0-0-0------------------| 
|---1-0---0-0-0-0----1-0---0-0-0-0---1---1-1-1-1--1--1-1-1------------------| 
           . . . .          . . . .       . . . .     . . . 
|---------------------------------------------------------------------------| 
|---------------------------------------------------------------------------| 
|---------------------------------------------------------------------------| 
|---------------------------------------------------------------------------| 
|---0-0-0-0-0-0-0-0-0-0-0-0-0-0-0-0--0--0-0-0-0---0---0-0-0-----------------| 
|---0-0-0-0-0-0-0-0-0-0-0-0-0-0-0-0--1--1-1-1-1---1---1-1-1-----------------| 
     . . . . . . . . . . . . . . . .  .  . . . .   .   . . .  
*********************************** 

| /   slide up 
| \   slide down 
| h   hammer-on 
| p   pull-off 
| ~   vibrato 
| +   harmonic 
| .   Mute note 
| b   Bend 
| pb  Pre-bend 
| br  Bend release 
| pbr Pre-bend release 
| brb Bend release bend 

************************************ 
		  

See also:

tabs Doa - Sexyest Girl tabs Deep Purple - Smoke on the water (intro) tabs Deep Purple - Highway Star tabs Albert Hammond Jr - Holiday tabs Deep Purple - Deep Purple - Smoke On The Water tabs Deep Purple - Ted The Mechanic
e-chords

Other versions:

tabs Fides In Us - Vacan't Hearts
auto scroll beats size up size down change color hide chords drawings
tab show chords e-chords YouTube Clip e-chords hide all tabs e-chords go to top tab

share with facebook