Fides In Us

High Horse

Fides In Us

tabs nolevel nolevel

by  ANDRSOUZA

save to print version add songbook text version e-mail correct tuner
chordsukulelecavacokeyboardtabbassdrumsharmonicaflute Guitar Pro
close

there isn't a video lesson for this song

chords

High Horse

	  		

Tuning:CGCFAD 

D|-----------------------------------------------------| 
A|-----------------------------------------------------| 
F|-----------------------------------------------------| 
C|-----------------------------------------------------|X7 
G|---0-0-0--0-----0-0-0-----0-0-0--0------0-0-0--------| 
C|---0-0-0--0-0---0-0-0-----0-0-0--0-12---0-0-0--------| 
     . . .  .     . . .     . . .  .      . . . 
D|---------------------------------------------| 
A|--------------------------------6------------| 
F|--------------------------------9------------| 
C|---------------------------------------------|x2 
G|---0-0-0-0---0-0-0---0-0-0-0--0--------------| 
C|---0-0-0-0---0-0-0---0-0-0-0--0--------------| 
     . . . .   . . .   . . . .  . 
D|-----------------------------------------------------| 
A|-----------------------------------------------------| 
F|-----------------------------------------------------| 
C|-----------------------------------------------------|X5 
G|---0-0-0--0-----0-0-0-----0-0-0--0------0-0-0--------| 
C|---0-0-0--0-0---0-0-0-----0-0-0--0-12---0-0-0--------| 
     . . .  .     . . .     . . .  .      . . . 
D|-------------------------------------------------------------------| 
A|-------------------------------------------------------------------| 
F|-------------------------------------------------------------------| 
C|-------3-----------------------------------------------------------| 
G|---1---1---3---5---3---1---3---5---3---1---5---8---8---10----------| 
C|---1-------3---5---3---1---3---5---3---1---5---7---8---10----------| 

D|------------------------------------------------------------------| 
A|------------------------------------------------------------------| 
F|------------------------------------------------------------------| 
C|------------------------------------------------------------------| 
G|---0-0-0--0-----0--0--0-0-0--0--0--------0-0-0--0---------0-------| 
C|---0-0-0--0--0--0--0--0-0-0--0--0--0--0--0-0-0--0--0--12--0-------| 
     . . .  .     .  .  . . .  .  .        . . .  .         .  
D|------------------------------------| 
A|---------------------------6--------| 
F|---------------------------9--------| 
C|------------------------------------|x2 (play the one above then the one two the left twice) 
G|---0--0-0-0--0--0--------0---0------| 
C|---0--0-0-0--0--0---12---0---0------| 
     .  . . .  .  .        . 
D|---------------------------------------------------------------------------| 
A|------------------------------------------------6--------------------------| 
F|------------------------------------------------9--------------------------| 
C|---------------------------------------------------------------------------| 
G|---0-0-0-0-0-0--0-0-0-0-0-----0---------0-0-0-0----0--0--0-0---0-----------| 
C|---0-0-0-0-0-0--0-0-0-0-0--0--0--0-12---0-0-0-0----0--0--0-0-0-0-0-12------| 
     . . . . . .  . . . . .     .         . . . .    .  .  . .   . 
D|------------------------------------------------------------------------------------| 
A|-------------------------------------------------------------------------------6----| 
F|-------------------------------------------------------------------------------9----| 
C|------------------------------------------------------------------------------------| 
G|---0-0-0-0-0---0--0-0-0-0-0-----0-----0--0-0-0-0-0--------0--0-0-0--0-0------0-----0| 
C|---0-0-0-0-0-0-0--0-0-0-0-0--0--0--0--0--0-0-0-0-0--12-0--0--0-0-0--0-0--12--0-----0| 
     . . . . .   .  . . . . .     .     .  . . . . .        .  . . .  . .      .     . 
D|---------------------------------------------------------------------------| 
A|---------------------------------------------------------------------------| 
F|---------------------------------------------------------------------------| 
C|-------3-------------------------------------------------------------------| 
G|---1---1---3---5---3---1---3---5---3---1---5---8---8---10------------------| 
C|---1-------3---5---3---1---3---5---3---1---5---7---8---10------------------| 

D|---------------------------------------------------------------------------| 
A|------------------------6---6----------------------------------------------| 
F|------------------------9---9----------------------------------------------| 
C|---------------------------------------------------------------------------|X2 
G|---000-0---000--000--00---0---0---000-0----000--000--00-----0----0---------| 
C|---000-0-0-000--000--00---0---0---000-0-12-000--000--00--0--0-12-0---------| 
     ... .   ...  ...  ..   .   .   ... .    ...  ...  ..     .    . 
D|--------------------------------------| 
A|--------------------------------------| 
F|--------------------------------------| 
C|--------------------------------------| 
G|---000-0-0-0----000-00-0-0---0--------| 
C|---000-0-0-0--0-000-00-0-0-0-0-12-----| 
     ... . . .    ... .. . .   .  
D|--------------------------------------| 
A|--------------------------------------| 
F|--------------------------------------| 
C|--------------------------------------| 
G|---000-0-0-0----000-00-0-0------------| 
C|---000-0-0-0--0-000-00-0-0-0-12-0-----| 
     ... . . .    ... .. . . 
D|-----------------------------------------------------------------------------| 
A|--------------------------6-----6--------------------------------------------| 
F|--------------------------9-----9--------------------------------------------| 
C|-----------------------------------------------------------------------------| 
G|---000-0-----000--000-00--------------000-0-----000--000--00-----0-----------| 
C|---000-0--0--000--000-00-----0----0---000-0-12--000--000--00--0--0--12--0----| 
     ... .     ...  ... ..              ... .     ...  ...  ..     . 
************************************ 

| /   slide up 
| \   slide down 
| h   hammer-on 
| p   pull-off 
| ~   vibrato 
| +   harmonic 
| x   Mute note 
| b   Bend 
| pb  Pre-bend 
| br  Bend release 
| pbr Pre-bend release 
| brb Bend release bend 

************************************ 
		  

See also:

tabs Doa - Sexyest Girl tabs Deep Purple - Smoke on the water (intro) tabs Deep Purple - Highway Star tabs Albert Hammond Jr - Holiday tabs Deep Purple - Deep Purple - Smoke On The Water tabs Deep Purple - Ted The Mechanic
e-chords

Other versions:

tabs Indigo Girls - High Horse tabs Nitty Gritty Dirt Band - High Horse tabs Fides In Us - High Horse
auto scroll beats size up size down change color hide chords drawings
tab show chords e-chords YouTube Clip e-chords hide all tabs e-chords go to top tab

share with facebook