Fides In Us

Dead Weight

Fides In Us

tabs Intermediate intermediate

by  HEBEALMEIDA

save to print version add songbook text version e-mail correct tuner
chordsukulelecavacokeyboardtabbassdrumsharmonicaflute Guitar Pro
close

there isn't a video lesson for this song

chords

Dead Weight

	  		

Tuning:Drop C 

e|---------------------------------------------------------------------------| 
B|---------------------------------------------------------------------------| 
G|---------------------------------------------------------------------------| 
D|---------------------------------------------------------------------------|X4 
A|---------------0--000------------------------------------0-000-------------| 
E|---0-0-12-0-12-0--000--0-12-0-12-0-000000-12-0--0-12-0-0-0-000-------------| 

e|-------------------------------------------------------| 
B|----------------------------6--------------------------| 
G|----------------------------9--------------------------| 
D|-------------------------------------------------------| 
A|---0-00000--0-0-0-00000--0----0-0--00--00--0-----------| 
E|---0-00000--0-0-0-00000--0----0-0--00--00--0-----------| 

e|----------------------------------------------| 
B|----------6-----------------------------------| 
G|----------9-----------------------------------| 
D|----------------------------------------------| 
A|---00000-----00000------0--0--00---000000-----| 
E|---00000-----00000--1---0--0--00---111111-----| 

e|-------------------------------------------------------------| 
B|-------------------------------------------------------------| 
G|-------------------------------------------------------------| 
D|-------------------------------------------------------------| 
A|---------------0--000----------------------------------------| 
E|---0-0-12-0-12-0--000--0-12-0-12-0-000000-12-0--0-12-0-0-----| 

e|------------------------------------| 
B|----------8--7----------------------| 
G|----------7--7----------------------| 
D|----5-----5--5-------2-----7--------|X2 
A|----5-----5--5-------2-----7--------| 
E|----5-----5--5-------2-----7--------| 

e|---------------------------------------------------------------------------| 
B|------7------6---4---------------------------------------------------------| 
G|------10-----9---7---------------------------------------------------------| 
D|---------------------------------------------------------------------------| 
A|---0----0000--------00-0------000-----------0000--------0000------00-------| 
E|---0----0000---00---00-0-12-0-000--0-0-12-0-0000-0-0-12-0000-0-12-00-------| 

e|------------------------------------------------------------------------------| 
B|--------------------------------------------------------------6---------------| 
G|--------------------------------------------------------------9---------------| 
D|------------------------------------------------------------------------------| 
A|---0000--0----0------0-----00000----00-0----00--000----00--------000-0-0------| 
E|---0000--0-12-0--3---0--12-00000-12-00-0-12-00--000-12-00-000----000-0-0------| 
      
e|----------------------------------------------------------------------------------------| 
B|----------------------------------------------------------------------------------------| 
G|----------------------------------------------------------------------------------------| 
D|----------------------------------------------------------------------------------------| 
A|---0-00----0000-----0--------0-0-00000-00-00-0-000000--0--00000000--0--0--00---000-000--| 
E|---0-00-00-0000--12-0-12-----0-0-00000-00-00-0-000000--1--11111111--1--0--00---000-000--| 

e|-------------------------------------------------------------------------------------------------| 
B|-------------------------------------------------------------------------------------------------| 
G|-------------------------------------------------------------------------------------------------| 
D|-------------------------------------------------------------------------------------------------| 
A|---0-----00000--000--0----00-------------------------00000---00---0-000------00-000-0------------| 
E|---0--12-00000--000--0-12-00---0-0-12-000--0-0-12-0--00000---00-0-0-000--12--00-000-0-12-0-12----| 

e|------------------------------------| 
B|----------8--7----------------------| 
G|----------7--7----------------------| 
D|----5-----5--5-------2-----7--------|X2 
A|----5-----5--5-------2-----7--------| 
E|----5-----5--5-------2-----7--------| 

e|----------------------------------------------------------------------------------------| 
B|----------------------------------------------------------------------------------------| 
G|----------------------------------------------------------------------------------------| 
D|----------------------------------------------------------------------------------------|X3 
A|-----------------------------------000-00----0-000---0-----0--00-0000-0000--------------| 
E|--0-00-0-12-0000--000-0-00-0-0-12--000-00-12-0-000-0-0-000-0--00-0000-0000-0-12-0-------| 

e|----------------------------------------------------------------------------------------| 
B|----------------------------------------------------------------------------------------| 
G|----------------------------------------------------------------------------------------| 
D|----------------------------------------------------------------------------------------| 
A|---0------------------0-000--0-----------0--0--00000000--0--00--------------------------| 
E|---0--0--0-12-0-12-0--0-000--0-0-12-0-12-0--0--00000000--0--00--0-0-0-0-12-0------------| 


e|---------------------------------------------------------------------------| 
B|---------------------------------------------------------------------------| 
G|---------------------------------------------------------------------------| 
D|---------------------------------------------------------------------------|X4 
A|---------------0--000------------------------------------0-000-------------| 
E|---0-0-12-0-12-0--000--0-12-0-12-0-000000-12-0--0-12-0-0-0-000-------------| 

************************************ 

| /   slide up 
| \   slide down 
| h   hammer-on 
| p   pull-off 
| ~   vibrato 
| +   harmonic 
| x   Mute note 
| b   Bend 
| pb  Pre-bend 
| br  Bend release 
| pbr Pre-bend release 
| brb Bend release bend 

************************************ 
		  

Full key step upFull key step up
Half key step upHalf key step up
Half key step downHalf key step down
Full key step downFull key step down
hide glossary

See also:

tabs Deep Purple - Sometimes a Feel Like Screaming tabs Deep Purple - Mistreated tabs Deep Purple - Smoke on the Water (ver. 2) tabs Ira! - Vitrine Viva tabs Doa - Sexyest Girl tabs Deep Purple - Ted The Mechanic
e-chords

Other versions:

tabs Fides In Us - Dead Weight
auto scroll beats size up size down change color hide chords drawings
tab show chords e-chords YouTube Clip e-chords hide all tabs e-chords go to top tab

share with facebook