Fernando Mendes

home > Fernando Mendes

A Desconhecida Tab

Fernando Mendes

Difficulty: nolevelnolevel

by Dudu%5FLopes

tuner correct add songbook print version text version save to e-mail
chordsukulelecavacokeyboardtabbassdrumsharmonicsflute Guitar Pro
chords

A Desconhecida

Year: 1973 - Album: Selecao de Ouro 20 Sucessos

(Fernando Mendes-Banana)

  		
 

D  F#m  Em  A 

e|-----------5---5------------------------------| 
B|----------7---7-------------------------------| 
G|--------7---7-----7---------------------------| 
D|----------------------------------------------| 
A|----------------------------------------------| 
E|----------------------------------------------| 

e|-----------5---5------------------------------| 
B|----------7---7-------------------------------| 
G|--------6---6-----6---------------------------| 
D|----------------------------------------------| 
A|----------------------------------------------| 
E|----------------------------------------------| 

e|-----------5---5------------------------------| 
B|----------7---7-------------------------------| 
G|--------5---5-----5---------------------------| 
D|----------------------------------------------| 
A|----------------------------------------------| 
E|----------------------------------------------| 

e|-----------5---5------------------------------| 
B|----------7---7-------------------------------| 
G|--------4---4-----4---------------------------| 
D|----------------------------------------------| 
A|----------------------------------------------| 
E|----------------------------------------------| 

e|----------------------------------------------| 
B|----------------------------------------------| 
G|-------4-----6-----7--------------------------| 
D|----------------------------------------------| 
A|----------------------------------------------| 
E|----------------------------------------------| 

e|-------------7--------7-----------------------| 
B|----------8--------8--------------------------| 
G|-------9--------9--------9--------------------| 
D|----------------------------------------------| 
A|----------------------------------------------| 
E|----------------------------------------------| 

e|-------------7--------7-----------------------| 
B|----------8--------8--------------------------| 
G|-------8--------8--------8--------------------| 
D|----------------------------------------------| 
A|----------------------------------------------| 
E|----------------------------------------------| 

e|-------------7--------7-----------------------| 
B|----------8--------8--------------------------| 
G|-------7--------7--------7--------------------| 
D|----------------------------------------------| 
A|----------------------------------------------| 
E|----------------------------------------------| 

e|-------------7--------7-----------------------| 
B|----------8--------8--------------------------| 
G|-------6--------6--------6--------------------| 
D|----------------------------------------------| 
A|----------------------------------------------| 
E|----------------------------------------------| 

e|----------------------------------------------| 
B|----------5----5-------5-----5----------------| 
G|--------6----6-------6-----6------------------| 
D|----------------------------------------------| 
A|----------------------------------------------| 
E|------5----5----5--5-----5--------------------| 

 
	  

Full key step upFull key step up
Half key step upHalf key step up
Half key step downHalf key step down
Full key step downFull key step down
Search Paypal
auto scroll beats size up size down change color hide chords drawings
tab show chords e-chords YouTube Clip e-chords hide all tabs e-chords go to top tab