Fernanda Brum

Espírto Santo

Fernanda Brum

tabs Beginner beginner

by  BREDANIEL

save to print version add songbook text version e-mail correct tuner
chordsukulelecavacokeyboardtabbassdrumsharmonicaflute Guitar Pro
close

there isn't a video lesson for this song

chords

Espírto Santo

	  		Autoria da Tablatura: Cleyton Priori e Daniel Breda 
 
Introdução: 
 
e|--------------------------------------------|------------------------|---------------------| 
B|--0--0-1-3-5-----5-7------7-8-8-7-----------|------1---1-0--------3--|------1---1-1/3------| 
G|-------------0-0-----4-4----------7/9-9-----|--2h4---4-----0h2-2-----|--2h4---0-------0-0--| 
D|--------------------------------------------|------------------------|---------------------| 
A|--------------------------------------------|------------------------|---------------------| 
E|--------------------------------------------|------------------------|---------------------| 
 
e|------------------------| 
B|-------------0-8-7-5-3--| 
G|--2/4-2-0-0-------------| 
D|------------------------| 
A|------------------------| 
E|------------------------| 
 
 
 Espírito...   Ore por...  Leve pra Deus.....            Espírito... 
e|-------------|-----------|-----------------------------|------------|- 
B|-3-3-1-0---0-|-0---0-3-1-|-1-1-0-1-1-0---------0-1-3-0-|-3-3-1-0--0-|- 
G|---------2---|---2-------|-------------2-0-0-2---------|---------2--|- 
D|-------------|-----------|-----------------------------|------------|- 
A|-------------|-----------|-----------------------------|------------|- 
E|-------------|-----------|-----------------------------|------------|- 
 Usa a Palavra.....         Que eu preciso....            Me ajude... 
e|--------------------------|-----------------------------|----0-0------|- 
B|-----0---3/5------7/5--3--|-1-1-0-1-1-0---------0-1-3-0-|--3-------3--|- 
G|-0-2---0------------------|-------------2-0-0-2---------|-------------|- 
D|--------------------------|-----------------------------|-------------|- 
A|--------------------------|-----------------------------|-------------|- 
E|--------------------------|-----------------------------|-------------|- 
 Nas minhas...   Nao sei...        Espírito...   Vem interceder... 
e|-0---0----0----|-------------3---|-------------|-------------------|- 
B|--------3---1--|-1-3-3-1-3-0---0-|-0-0---0-3-1-|-1-1-1-1-1-0-3/5--3|- 
G|---------------|-----------------|-----2-------|-------------------|- 
D|---------------|-----------------|-------------|-------------------|- 
A|---------------|-----------------|-------------|-------------------|- 
E|---------------|-----------------|-------------|-------------------|- 
 Todas as coi...        Daqueles que...      Espírito.... 
e|-0-0---0---0h2--------|--2-3-3-2-3-2-3-0---|-0-0-----------|- 
B|-----3---3-----0-0-0--|--------------------|-----3-1-0-1---|- 
G|----------------------|--------------------|---------------|- 
D|----------------------|--------------------|---------------|- 
A|----------------------|--------------------|---------------|- 
E|----------------------|--------------------|---------------|- 
 Vem orar... Estou cla.. Estou pedi.. Só Deus sabe....         
e|-----------|-2-2-3-5-3-|-3-3-2-3-0--|--0-2-3-5---7-5-7-5-3-|-- 
B|-1-0-3-0---|-----------|------------|----------3-----------|-- 
G|---------0-|-----------|------------|----------------------|-- 
D|-----------|-----------|------------|----------------------|-- 
A|-----------|-----------|------------|----------------------|-- 
E|-----------|-----------|------------|----------------------|-- 
 Meu Cora... Está...     Mas o meu...           Estou cla.. Estou ped... 
e|-3-2-3-5-3-|-3-2-3-3-0-|-0-0-2-3----7-5-7-5-3-|-2-2-3-5-3-|-3-2-3-2-0-|- 
B|-----------|-----------|---------3------------|-----------|-----------|- 
G|-----------|-----------|----------------------|-----------|-----------|- 
D|-----------|-----------|----------------------|-----------|-----------|- 
A|-----------|-----------|----------------------|-----------|-----------|- 
E|-----------|-----------|----------------------|-----------|-----------|- 
 Só Deus sabe...       Meu Cora... Está...     Mas o meu... 
e|-0-0-2-3---7-5-7-5-3-|-3-2-3-5-3-|-3-2-3-3-0-|-0-0-2-3----7-5-7-5-3-| 
B|---------3-----------|-----------|-----------|---------3------------| 
G|---------------------|-----------|-----------|----------------------| 
D|---------------------|-----------|-----------|----------------------| 
A|---------------------|-----------|-----------|----------------------| 
E|---------------------|-----------|-----------|----------------------| 
 
(Repete Introdução) + B|--1--3--| 
 
 Todas as coi...        Daqueles que...      Espírito.... 
e|-0-0---0---0h2--------|--2-3-3-2-3-2-3-0---|-0-0-----------|- 
B|-----3---3-----0-0-0--|--------------------|-----3-1-0-1---|- 
G|----------------------|--------------------|---------------|- 
D|----------------------|--------------------|---------------|- 
A|----------------------|--------------------|---------------|- 
E|----------------------|--------------------|---------------|- 
 Vem orar... Estou cla.. Estou pedi.. Só Deus sabe....         
e|-----------|-2-2-3-5-3-|-3-3-2-3-0--|--0-2-3-5---7-5-7-5-3-|-- 
B|-1-0-3-0---|-----------|------------|----------3-----------|-- 
G|---------0-|-----------|------------|----------------------|-- 
D|-----------|-----------|------------|----------------------|-- 
A|-----------|-----------|------------|----------------------|-- 
E|-----------|-----------|------------|----------------------|-- 
 Meu Cora... Está...     Mas o meu...           Estou cla.. Estou ped... 
e|-3-2-3-5-3-|-3-2-3-3-0-|-0-0-2-3----7-5-7-5-3-|-2-2-3-5-3-|-3-2-3-2-0-|- 
B|-----------|-----------|---------3------------|-----------|-----------|- 
G|-----------|-----------|----------------------|-----------|-----------|- 
D|-----------|-----------|----------------------|-----------|-----------|- 
A|-----------|-----------|----------------------|-----------|-----------|- 
E|-----------|-----------|----------------------|-----------|-----------|- 
 Só Deus sabe...       Meu Cora... Está...     Mas o meu... 
e|-0-0-2-3---7-5-7-5-3-|-3-2-3-5-3-|-3-2-3-3-0-|-0-0-2-3----7-5-7-5-3-| 
B|---------3-----------|-----------|-----------|---------3------------| 
G|---------------------|-----------|-----------|----------------------| 
D|---------------------|-----------|-----------|----------------------| 
A|---------------------|-----------|-----------|----------------------| 
E|---------------------|-----------|-----------|----------------------| 
 
Encerramento 
 
B|--0----0--1--3--5--3--1-----| 
G|--------------------------2-|     +    Acorde G 

		  

Full key step upFull key step up
Half key step upHalf key step up
Half key step downHalf key step down
Full key step downFull key step down
hide glossary

See also:

tabs Toque no Altar - Eu vou viver uma virada tabs Atmosfera de Adoração - Aleluia tabs PG - Introdução - Meu Universo tabs Oficina G3 - Espelhos Mágicos tabs Trazendo a Arca - Na Corte Do Egito tabs Fernandinho - Faz chover
e-chords

Other versions:

tabs Fernanda Brum - Espírto Santo
auto scroll beats size up size down change color hide chords drawings
tab show chords e-chords YouTube Clip e-chords hide all tabs e-chords go to top tab

share