Fenix TX

Speechless

Fenix TX

tabs

save to print version add songbook text version e-mail correct tuner
chordsukulelecavacokeyboardtabbassdrumsharmonicaflute Guitar Pro
close

there isn't a video lesson for this song

chords

Speechless

	  		fenix tx 
speechless 
Intro/Verse Palm Muted 
       E        G#       A      B 
e|--------------------------------------------------------------------| 
B|--------------------------------------------------------------------| 
G|-----9--------------------------------------------------------------| 
D|-----9--------6--------7------9-------------------------------------| 
A|-----7--------6--------7------9-------------------------------------| 
E|--------------4--------5------7-------------------------------------| 
 
Riff 1 Guitar 2 
D|--------------------------------------------------------------------| 
A|-2-1-2--1-2-1--2-1-2--4-2-1-----------------------------------------| 
E|--------------------------------------------------------------------| 
 
Guitar 3 Last two time each time trough 
e|--------------------------------------------------------------------| 
B|--------------------------------------------------------------------| 
G|-9-8-9--8-9-8--9-8-9--11-9-8----------------------------------------| 
D|-x-x-x--x-x-x--x-x-x---x-x-x----------------------------------------| 
A|-7-6-7--6-7-6--7-6-7---9-7-6----------------------------------------| 
E|--------------------------------------------------------------------| 
 
Chorus 
           D     E     B 
e|--------------------------------------------------------------------| 
B|--------------------------------------------------------------------| 
G|---------7-----9----------------------------------------------------| 
D|---------7-----9-----9----------------------------------------------| 
A|---------5-----7-----9----------------------------------------------| 
E|---------------------7----------------------------------------------| 
 
After Chorus 
           A     G# 
e|--------------------------------------------------------------------| 
B|--------------------------------------------------------------------| 
G|--------------------------------------------------------------------| 
D|---------7-----6----------------------------------------------------| 
A|---------7-----6----------------------------------------------------| 
E|---------5-----4----------------------------------------------------| 
 
Bridge 
e|--------------------------------------------------------------------| 
B|--------------------------------------------------------------------| 
G|-11-9-8-9-----------------------------------------------------------| 
D|--x-x-x-x-----------------------------------------------------------| 
A|--9-7-6-7-----------------------------------------------------------| 
E|--------------------------------------------------------------------| 
 

		  

Full key step upFull key step up
Half key step upHalf key step up
Half key step downHalf key step down
Full key step downFull key step down
hide glossary

See also:

tabs Zélia Duncan - Catedral tabs Raimundos - Esporrei Na Manivela tabs Legião Urbana - Será tabs Los Hermanos - Anna Julia tabs Legião Urbana - A Ordem Dos Templários tabs Ira! - Eu quero sempre mais (Solo)
e-chords

Other versions:

tabs Beyoncé - Speechless tabs Fenix TX - Speechless tabs The Veronicas - Speechless tabs Michael Jackson - Speechless tabs Paul Blake - Speechless (instrumental) tabs Fenix TX - Speechless (ver. 2)
auto scroll beats size up size down change color hide chords drawings
tab show chords e-chords YouTube Clip e-chords hide all tabs e-chords go to top tab

share