Feeder

Sweet

Feeder

tabs

save to print version add songbook text version e-mail correct tuner
chordsukulelecavacokeyboardtabbassdrumsharmonicaflute Guitar Pro
close

there isn't a video lesson for this song

chords

Sweet

	  		Tuning: DROP D (DADBGe) 
 
 
Key 
--- 
~   Let note ring 
x   Do not play string 
*   Harmonic 
PM  Palm mute 
\   Slide down 
 
 
 
{SONG} 
 
INTRO 
e ------------------------------------------------------------------ 
B ------------------------------------------------------------------ 
G --5-5-5-5-5-5-5-3-5-5-3-5-5-3-5-5-5-5-5-5-5-5--3--5--3--5--3--5-5- 
D --5-5-5-5-5-5-5-5-5-5-5-5-5-5-5-5-5-5-5-5-5-5-5-5-5-5-5-5-5-5-5-5- 
A --3-3-3-3-3-3-3-3-3-3-3-3-3-3-3-3-3-3-3-3-3-3-3-3-3-3-3-3-3-3-3-3- 
D ------------------------------------------------------------------ 
 
 
VERSE 
e ------------------------------------------------------------------ 
B ------------------------------------------------------------------ 
G ------------------------------------------------------------------ 
D -12--12--10----12--12----10--10--12--12--10----12--12----10--10--- 
A ------------------------------------------------------------------ 
D ----0---0---0-0---0---0-0---0---0---0---0---0-0---0---0-0---0---0- 
 
 
CHORUS (work out strumming pattern yourself!) 
e -------------------------------------------- 
B -------------------------------------------- 
G --5----5----10---10----5----5----10---10---- 
D --5----5----10---10----5----5----10---10---- 
A --3----7----8----12----3----7----8----12---- 
D -------------------------------------------- 
 
 
BRIDGE 
e ------------------------------------------------------------------ 
B ------------------------------------------------------------------ 
G ------------------------------------------------------------------ 
D --2---2-0-2---5-----5-5-5-8-8-8---2---2-0-2---5-----5-5-5-8-7----- 
A --2---2-0-2---5-----5-5-5-8-8-8---2---2-0-2---5-----5-5-5-8-7----- 
D --2---2-0-2---5-----5-5-5-8-8-8---2---2-0-2---5-----5-5-5-8-7----- 
 
SOLO (guitar two repeats bridge) 
e ------------------------------------------------------------------ 
B ---------------------------------------------------------10b12r10- 
G --9---9-9-9-7---------------------9---9-9-9-7--------------------- 
D --------------8----7--8-7---------------------8----7-------------- 
A ------------------------------------------------------------------ 
E ------------------------------------------------------------------ 
 
 
ENDING 
e --------- 
B --------- 
G --------- 
D --0~~~~-- 
A --0~~~~-- 
D --0~~~~-- 
 
 
--------------------------------------------------------------------- 
That's it for the tab just repeat those parts in the following order: 
 
{ORDER OF PLAY} 
Intro   x2 
Verse   x4 
Chorus  x1 
Verse   x4 
Chorus  x1 
Verse   x2 
Bridge  x2 
Solo    x2 
Ending (pause) 
Verse   x4 
Chorus  x2 
Verse   x4 
ENDING 
 
 
Any corrections/comments/anything else you care to send me is greatly 
appreciated ([email protected]) unless it is totally un-related 
and/or un-calledfor, in which case it will be printed off, made into 
paper aeroplanes and used to drop bombs on your house. Thankyou. 
Peace, love and empathy, Richey Slash. 
 

		  

Full key step upFull key step up
Half key step upHalf key step up
Half key step downHalf key step down
Full key step downFull key step down
hide glossary

See also:

tabs Feeder - Oxygen tabs Feeder - Anaeshetic tabs Feeder - Helium (ver. 2) tabs Feeder - Godzilla (ver. 2) tabs Feeder - You're My Evergreen tabs Feeder - Sweet Sixteen
e-chords

Other versions:

tabs Feeder - Sweet tabs Howie Day - Sweet tabs Rumanastone - Sweet tabs 311 - Sweet tabs Killing Heidi - Sweet (Acoustic) tabs Feeder - Sweet (ver. 2)
auto scroll beats size up size down change color hide chords drawings
tab show chords e-chords YouTube Clip e-chords hide all tabs e-chords go to top tab

share