Feeder

Godzilla

Feeder

tabs Expert expert

save to print version add songbook text version e-mail correct tuner
chordsukulelecavacokeyboardtabbassdrumsharmonicaflute Guitar Pro
close

there isn't a video lesson for this song

chords

Godzilla

	  		Words and music by Grant Nicholas 
Record Label-Echo 
Tabber-Stephen Singh (Stereoworld) 
 
 
Riff 1 for verse 
 
e------------------------------------------------------------------------------------------------------ 
b------------------------------------------------------------------------------------------------------ 
g------------------------------------------------------------------------------------------------------ 
d------------------------------------------------------------------------------------------------------- 
a--0--1---2--3-3-----6-6-6------------------------------------------------------------------------------- 
D--0--1---2--3-3-----6-6-6------------------------------------------------------------------------------- 
 
 
Chorus 
 
E--------------------------------------------------------------------------------------------------- 
B-------------------------------------------------------------------------------------------------- 
G-------------------------------------------------------------------------------------------------- 
D-------------------------------------------------------------------------------------------------- 
A-1-1-1-1-1-1-1-1-1-1/---------5-5-5-5-5-5-5-5----------------------------------------------------        
D-1-1-1-1-1-1-1-1-1-1/---------5-5-5-5-5-5-5-5---------------------------------------------------- 
 
Back to Riff 1 for verse 2 
 
e---------------------------------------------------------------------------------------------------- 
b---------------------------------------------------------------------------------------------------- 
g---------------------------------------------------------------------------------------------------- 
d----------------------------------------------------------------------------------------------------- 
a--0--1---2--3-3-----6-6-6---------------------------------------------------------------------------- 
D--0--1---2--3-3-----6-6-6---------------------------------------------------------------------------- 
 
The interlude in the song goes like this 
 
e------------------------------------------------------------------------------------------------------ 
b------------------------------------------------------------------------------------------------------ 
g-----------------------------------------4h5---------------------------------------------------------- 
d--1-1-1--2-2-2----2-2-2------3h4---------------------------------------------------------------------- 
a--1-1-1--2-2-2----2-2-2------------------------------------------------------------------------------- 
D--1-1-1--2-2-2----2-2-2------------------------------------------------------------------------------- 
 
 
Verse 3- repest riff 1 (...we are the paranoid...) 
 
e------------------------------------------------------------------------------------------------------ 
b------------------------------------------------------------------------------------------------------ 
g------------------------------------------------------------------------------------------------------ 
d------------------------------------------------------------------------------------------------------- 
a--0--1---2--3-3-----6-6-6------------------------------------------------------------------------------- 
D--0--1---2--3-3-----6-6-6------------------------------------------------------------------------------- 
 
 
 
Final Chorus 
 
E--------------------------------------------------------------------------------------------------- 
B-------------------------------------------------------------------------------------------------- 
G-------------------------------------------------------------------------------------------------- 
D-------------------------------------------------------------------------------------------------- 
A-1-1-1-1-1-1-1-1-1-1/---------5-5-5-5-5-5-5-5----------------------------------------------------        
D-1-1-1-1-1-1-1-1-1-1/---------5-5-5-5-5-5-5-5---------------------------------------------------- 
 
Finish song of with riff 1 
 
 
 
any comments, questions etc, sent to ,"[email protected]" 
 

		  

See also:

tabs Feeder - Bug tabs Feeder - High tabs Feeder - Find The Colour (ver. 2) tabs Feeder - Buck Rodgers tabs Feeder - Choke (ver. 2) tabs Feeder - Just The Way I'm Feeling (ver. 2)
e-chords

Other versions:

tabs Blue Oyster Cult - Godzilla tabs Feeder - Godzilla tabs Feeder - Godzilla (ver. 2) tabs Silverchair - Godzilla Soundtrack
auto scroll beats size up size down change color hide chords drawings
tab show chords e-chords YouTube Clip e-chords hide all tabs e-chords go to top tab

share