Feeder

Buck Rogers (ver. 3)

Feeder

tabs

save to print version add songbook text version e-mail correct tuner
chordsukulelecavacokeyboardtabbassdrumsharmonicaflute Guitar Pro
close

there isn't a video lesson for this song

chords

Buck Rogers (ver. 3)

	  		FEEDER-BUCK RODGERS 
 
Intro/Verse 
E|-----------------------------------------| 
B|-----------------------------------------| 
G|-----------------------------------------| 
D|-----------------------------------------| 
A|---11-11-11-11-11-11-11-11-6-6-6-7-7-7-7-| 
E|---0--0--0--0--0--0?-0?-0--4-4-4-5-5-5-5-| 
 
E|-----------------------------------------| 
B|-----------------------------------------| 
G|-----------------------------------------| 
D|-----------------------------------------| 
A|---11-11-11-11-11-11-11-11-6-6-6-7-7-7-7-| 
E|---0--0--0--0--0--0?-0?-0--4-4-4-5-5-5-5-| 
 
E|-----------------------------------------| 
B|-----------------------------------------| 
G|-----------------------------------------| 
D|-----------------------------------------| 
A|---11-11-11-11-11-11-11-11-6-6-6-7-7-7-7-| 
E|---0--0--0--0--0--0?-0?-0--4-4-4-5-5-5-5-| 
 
E|-----------------------------------------| 
B|-----------------------------------------| 
G|-----------------------------------------| 
D|-----------------------------------------| 
A|---11-11-11-11-11-11-11-11-6-6-6-7-7-7-7-| 
E|---0--0--0--0--0--0?-0?-0--4-4-4-5-5-5-5-| 
 
E|-----------------------------------------| 
B|-----------------------------------------| 
G|-----------------------------------------| 
D|-----------------------------------------| 
A|---11-11-11-11-11-11-11-11-6-6-6-7-7-7-7-| 
E|---0--0--0--0--0--0?-0?-0--4-4-4-5-5-5-5-| 
 
E|-----------------------------------------| 
B|-----------------------------------------| 
G|-----------------------------------------| 
D|-----------------------------------------| 
A|---11-11-11-11-11-11-11-11-6-6-6-7-7-7-7-| 
E|---0--0--0--0--0--0?-0?-0--4-4-4-5-5-5-5-| 
 
Bridge 
 
E---0-0-0-0-0-0-0-0-4-4-4-5-5-5-5-| 
B---0-0-0-0-0-0-0-0-4-4-4-5-5-5-5-| 
G---1-1-1-1-1-1-1-1-5-5-5-6-6-6-6-| 
D---2-2-2-2-2-2-2-2-6-6-6-7-7-7-7-| 
A---2-2-2-2-2-2-2-2-6-6-6-7-7-7-7-| 
E---0-0-0-0-0-0-0-0-4-4-4-5-5-5-5-| 
 
E---0-0-0-0-0-0-0-0-4-4-4-5-5-5-5-7-7-7-7-7-7-7-7-7-| 
B---0-0-0-0-0-0-0-0-4-4-4-5-5-5-5-7-7-7-7-7-7-7-7-7-| 
G---1-1-1-1-1-1-1-1-5-5-5-6-6-6-6-8-8-8-8-8-8-8-8-8-| 
D---2-2-2-2-2-2-2-2-6-6-6-7-7-7-7-9-9-9-9-9-9-9-9-9-| 
A---2-2-2-2-2-2-2-2-6-6-6-7-7-7-7-9-9-9-9-9-9-9-9-9-| 
E---0-0-0-0-0-0-0-0-4-4-4-5-5-5-5-7-7-7-7-7-7-7-7-7-| 
 
Chorus 
 
E---0-0-0-0-0-0-0-0-7-7-7-7-7-7-7-7-9--9--9--9--9?-9--9--9--| 
B---0-0-0-0-0-0-0-0-7-7-7-7-7-7-7-7-9--9--9--9--9--9--9--9--| 
G---1-1-1-1-1-1-1-1-8-8-8-8-8-8-8-8-9--9--9--9--9--9--9--9--| 
D---2-2-2-2-2-2-2-2-9-9-9-9-9-9-9-9-11-11-11-11-11-11-11-11-| 
A---2-2-2-2-2-2-2-2-9-9-9-9-9-9-9-9-11-11-11-11-11-11-11-11-| 
E---0-0-0-0-0-0-0-0-7-7-7-7-7-7-7-7-9--9--9--9--9--9--9--9--| 
 
E---5-5-5-5-5-5-5-5---0-0-0-0-0-0-0-0-7-7-7-7-7-7-7-7-5-5-5-5-5-5-5-5-| 
B---5-5-5-5-5-5-5-5---0-0-0-0-0-0-0-0-7-7-7-7-7-7-7-7-5-5-5-5-5-5-5-5-| 
G---6-6-6-6-6-6-6-6---1-1-1-1-1-1-1-1-8-8-8-8-8-8-8-8-6-6-6-6-6-6-6-6-| 
D---7-7-7-7-7-7-7-7---2-2-2-2-2-2-2-2-9-9-9-9-9-9-9-9-7-7-7-7-7-7-7-7-| 
A---7-7-7-7-7-7-7-7---2-2-2-2-2-2-2-2-9-9-9-9-9-9-9-9-7-7-7-7-7-7-7-7-| 
E---5-5-5-5-5-5-5-5---0-0-0-0-0-0-0-0-7-7-7-7-7-7-7-7-5-5-5-5-5-5-5-5-| 
 
E---5-5-5-5-5-5-5-5-| 
B---5-5-5-5-5-5-5-5-| 
G---6-6-6-6-6-6-6-6-| 
D---7-7-7-7-7-7-7-7-| 
A---7-7-7-7-7-7-7-7-| 
E---5-5-5-5-5-5-5-5-| 
 
Bridge 
 
E---0-0-0-0-0-0-0-0-4-4-4-5-5-5-5-| 
B---0-0-0-0-0-0-0-0-4-4-4-5-5-5-5-| 
G---1-1-1-1-1-1-1-1-5-5-5-6-6-6-6-| 
D---2-2-2-2-2-2-2-2-6-6-6-7-7-7-7-| 
A---2-2-2-2-2-2-2-2-6-6-6-7-7-7-7-| 
E---0-0-0-0-0-0-0-0-4-4-4-5-5-5-5-| 
 
E---0-0-0-0-0-0-0-0-4-4-4-5-5-5-5-| 
B---0-0-0-0-0-0-0-0-4-4-4-5-5-5-5-| 
G---1-1-1-1-1-1-1-1-5-5-5-6-6-6-6-| 
D---2-2-2-2-2-2-2-2-6-6-6-7-7-7-7-| 
A---2-2-2-2-2-2-2-2-6-6-6-7-7-7-7-| 
E---0-0-0-0-0-0-0-0-4-4-4-5-5-5-5-| 
 
Intro/Verse 
 
E|-----------------------------------------| 
B|-----------------------------------------| 
G|-----------------------------------------| 
D|-----------------------------------------| 
A|---11-11-11-11-11-11-11-11-6-6-6-7-7-7-7-| 
E|---0--0--0--0--0--0?-0?-0--4-4-4-5-5-5-5-| 
 
E|-----------------------------------------| 
B|-----------------------------------------| 
G|-----------------------------------------| 
D|-----------------------------------------| 
A|---11-11-11-11-11-11-11-11-6-6-6-7-7-7-7-| 
E|---0--0--0--0--0--0?-0?-0--4-4-4-5-5-5-5-| 
 
E|-----------------------------------------| 
B|-----------------------------------------| 
G|-----------------------------------------| 
D|-----------------------------------------| 
A|---11-11-11-11-11-11-11-11-6-6-6-7-7-7-7-| 
E|---0--0--0--0--0--0?-0?-0--4-4-4-5-5-5-5-| 
 
E|-----------------------------------------| 
B|-----------------------------------------| 
G|-----------------------------------------| 
D|-----------------------------------------| 
A|---11-11-11-11-11-11-11-11-6-6-6-7-7-7-7-| 
E|---0--0--0--0--0--0?-0?-0--4-4-4-5-5-5-5-| 
 
Bridge 
 
E---0-0-0-0-0-0-0-0-4-4-4-5-5-5-5-| 
B---0-0-0-0-0-0-0-0-4-4-4-5-5-5-5-| 
G---1-1-1-1-1-1-1-1-5-5-5-6-6-6-6-| 
D---2-2-2-2-2-2-2-2-6-6-6-7-7-7-7-| 
A---2-2-2-2-2-2-2-2-6-6-6-7-7-7-7-| 
E---0-0-0-0-0-0-0-0-4-4-4-5-5-5-5-| 
 
E---0-0-0-0-0-0-0-0-4-4-4-5-5-5-5-7-7-7-7-7-7-7-7-7-| 
B---0-0-0-0-0-0-0-0-4-4-4-5-5-5-5-7-7-7-7-7-7-7-7-7-| 
G---1-1-1-1-1-1-1-1-5-5-5-6-6-6-6-8-8-8-8-8-8-8-8-8-| 
D---2-2-2-2-2-2-2-2-6-6-6-7-7-7-7-9-9-9-9-9-9-9-9-9-| 
A---2-2-2-2-2-2-2-2-6-6-6-7-7-7-7-9-9-9-9-9-9-9-9-9-| 
E---0-0-0-0-0-0-0-0-4-4-4-5-5-5-5-7-7-7-7-7-7-7-7-7-| 
 
Chorus 
 
E---0-0-0-0-0-0-0-0-7-7-7-7-7-7-7-7-9--9--9--9--9?-9--9--9--| 
B---0-0-0-0-0-0-0-0-7-7-7-7-7-7-7-7-9--9--9--9--9--9--9--9--| 
G---1-1-1-1-1-1-1-1-8-8-8-8-8-8-8-8-9--9--9--9--9--9--9--9--| 
D---2-2-2-2-2-2-2-2-9-9-9-9-9-9-9-9-11-11-11-11-11-11-11-11-| 
A---2-2-2-2-2-2-2-2-9-9-9-9-9-9-9-9-11-11-11-11-11-11-11-11-| 
E---0-0-0-0-0-0-0-0-7-7-7-7-7-7-7-7-9--9--9--9--9--9--9--9--| 
 
E---5-5-5-5-5-5-5-5---0-0-0-0-0-0-0-0-7-7-7-7-7-7-7-7-5-5-5-5-5-5-5-5-| 
B---5-5-5-5-5-5-5-5---0-0-0-0-0-0-0-0-7-7-7-7-7-7-7-7-5-5-5-5-5-5-5-5-| 
G---6-6-6-6-6-6-6-6---1-1-1-1-1-1-1-1-8-8-8-8-8-8-8-8-6-6-6-6-6-6-6-6-| 
D---7-7-7-7-7-7-7-7---2-2-2-2-2-2-2-2-9-9-9-9-9-9-9-9-7-7-7-7-7-7-7-7-| 
A---7-7-7-7-7-7-7-7---2-2-2-2-2-2-2-2-9-9-9-9-9-9-9-9-7-7-7-7-7-7-7-7-| 
E---5-5-5-5-5-5-5-5---0-0-0-0-0-0-0-0-7-7-7-7-7-7-7-7-5-5-5-5-5-5-5-5-| 
 
E---5-5-5-5-5-5-5-5-| 
B---5-5-5-5-5-5-5-5-| 
G---6-6-6-6-6-6-6-6-| 
D---7-7-7-7-7-7-7-7-| 
A---7-7-7-7-7-7-7-7-| 
E---5-5-5-5-5-5-5-5-| 
 
E---0-0-0-0-0-0-0-0-7-7-7-7-7-7-7-7-9--9--9--9--9?-9--9--9--| 
B---0-0-0-0-0-0-0-0-7-7-7-7-7-7-7-7-9--9--9--9--9--9--9--9--| 
G---1-1-1-1-1-1-1-1-8-8-8-8-8-8-8-8-9--9--9--9--9--9--9--9--| 
D---2-2-2-2-2-2-2-2-9-9-9-9-9-9-9-9-11-11-11-11-11-11-11-11-| 
A---2-2-2-2-2-2-2-2-9-9-9-9-9-9-9-9-11-11-11-11-11-11-11-11-| 
E---0-0-0-0-0-0-0-0-7-7-7-7-7-7-7-7-9--9--9--9--9--9--9--9--| 
 
E---5-5-5-5-5-5-5-5---0-0-0-0-0-0-0-0-7-7-7-7-7-7-7-7-5-5-5-5-5-5-5-5-| 
B---5-5-5-5-5-5-5-5---0-0-0-0-0-0-0-0-7-7-7-7-7-7-7-7-5-5-5-5-5-5-5-5-| 
G---6-6-6-6-6-6-6-6---1-1-1-1-1-1-1-1-8-8-8-8-8-8-8-8-6-6-6-6-6-6-6-6-| 
D---7-7-7-7-7-7-7-7---2-2-2-2-2-2-2-2-9-9-9-9-9-9-9-9-7-7-7-7-7-7-7-7-| 
A---7-7-7-7-7-7-7-7---2-2-2-2-2-2-2-2-9-9-9-9-9-9-9-9-7-7-7-7-7-7-7-7-| 
E---5-5-5-5-5-5-5-5---0-0-0-0-0-0-0-0-7-7-7-7-7-7-7-7-5-5-5-5-5-5-5-5-| 
						MIDDLE 8/SOLO 
E---5-5-5-5-5-5-5-5-|	E------------------|------------------| 
B---5-5-5-5-5-5-5-5-|	B------------------|------------------| 
G---6-6-6-6-6-6-6-6-|	G------------------|------------------| 
D---7-7-7-7-7-7-7-7-|	D---4-4-4--6-7-7---|---4-4-4--6-7-7---| 
A---7-7-7-7-7-7-7-7-|	A---4-4-4--6-7-7---|---4-4-4--6-7-7---| 
E---5-5-5-5-5-5-5-5-|	E---2-2-2--4-5-5---|---2-2-2--4-5-5---| 
 
Bridge 
 
E---0-0-0-0-0-0-0-0-4-4-4-5-5-5-5-| 
B---0-0-0-0-0-0-0-0-4-4-4-5-5-5-5-| 
G---1-1-1-1-1-1-1-1-5-5-5-6-6-6-6-| 
D---2-2-2-2-2-2-2-2-6-6-6-7-7-7-7-| 
A---2-2-2-2-2-2-2-2-6-6-6-7-7-7-7-| 
E---0-0-0-0-0-0-0-0-4-4-4-5-5-5-5-| 
 
E---0-0-0-0-0-0-0-0-4-4-4-5-5-5-5-| 
B---0-0-0-0-0-0-0-0-4-4-4-5-5-5-5-| 
G---1-1-1-1-1-1-1-1-5-5-5-6-6-6-6-| 
D---2-2-2-2-2-2-2-2-6-6-6-7-7-7-7-| 
A---2-2-2-2-2-2-2-2-6-6-6-7-7-7-7-| 
E---0-0-0-0-0-0-0-0-4-4-4-5-5-5-5-| 
 
Chorus 
 
E---0-0-0-0-0-0-0-0-7-7-7-7-7-7-7-7-9--9--9--9--9?-9--9--9--| 
B---0-0-0-0-0-0-0-0-7-7-7-7-7-7-7-7-9--9--9--9--9--9--9--9--| 
G---1-1-1-1-1-1-1-1-8-8-8-8-8-8-8-8-9--9--9--9--9--9--9--9--| 
D---2-2-2-2-2-2-2-2-9-9-9-9-9-9-9-9-11-11-11-11-11-11-11-11-| 
A---2-2-2-2-2-2-2-2-9-9-9-9-9-9-9-9-11-11-11-11-11-11-11-11-| 
E---0-0-0-0-0-0-0-0-7-7-7-7-7-7-7-7-9--9--9--9--9--9--9--9--| 
 
E---5-5-5-5-5-5-5-5---0-0-0-0-0-0-0-0-7-7-7-7-7-7-7-7-5-5-5-5-5-5-5-5-| 
B---5-5-5-5-5-5-5-5---0-0-0-0-0-0-0-0-7-7-7-7-7-7-7-7-5-5-5-5-5-5-5-5-| 
G---6-6-6-6-6-6-6-6---1-1-1-1-1-1-1-1-8-8-8-8-8-8-8-8-6-6-6-6-6-6-6-6-| 
D---7-7-7-7-7-7-7-7---2-2-2-2-2-2-2-2-9-9-9-9-9-9-9-9-7-7-7-7-7-7-7-7-| 
A---7-7-7-7-7-7-7-7---2-2-2-2-2-2-2-2-9-9-9-9-9-9-9-9-7-7-7-7-7-7-7-7-| 
E---5-5-5-5-5-5-5-5---0-0-0-0-0-0-0-0-7-7-7-7-7-7-7-7-5-5-5-5-5-5-5-5-| 
 
E---5-5-5-5-5-5-5-5-| 
B---5-5-5-5-5-5-5-5-| 
G---6-6-6-6-6-6-6-6-| 
D---7-7-7-7-7-7-7-7-| 
A---7-7-7-7-7-7-7-7-| 
E---5-5-5-5-5-5-5-5-| 
 
Bridge 
 
E---0-0-0-0-0-0-0-0-4-4-4-5-| 
B---0-0-0-0-0-0-0-0-4-4-4-5-| 
G---1-1-1-1-1-1-1-1-5-5-5-6-| 
D---2-2-2-2-2-2-2-2-6-6-6-7-| 
A---2-2-2-2-2-2-2-2-6-6-6-7-| 
E---0-0-0-0-0-0-0-0-4-4-4-5-| 
 

		  

See also:

tabs Feeder - Sweet (ver. 2) tabs Feeder - Insomnia tabs Feeder - Godzilla (ver. 2) tabs Feeder - Just A Day tabs Feeder - Piece By Piece (ver. 2) tabs Feeder - Summers Gone
e-chords

Other versions:

tabs Feeder - Buck Rogers (ver. 2) tabs Feeder - Buck Rogers (ver. 3)
auto scroll beats size up size down change color hide chords drawings
tab show chords e-chords YouTube Clip e-chords hide all tabs e-chords go to top tab

share