Fear Factory

Scum Grief

Fear Factory

tabs

save to print version add songbook text version e-mail correct tuner
chordsukulelecavacokeyboardtabbassdrumsharmonicaflute Guitar Pro
close

there isn't a video lesson for this song

chords

Scum Grief

	  		Fear Factory are a total kick ass band and so for what ever credit I get for this tab I  want it to go straight to the band***** 
 
 
Band		=Fear Factory 
Album		=Fear Is The Mind Killer 
Song		=Scumgrief 
 
 
	Intro 
 
Some futuristic sounds first 
 
E/ ------------------------------------------------- 
B/ ------------------------------------------------- 
G/ ------------------------------------------------- 
D/ --------5---4------------------------------------ 
A/ 2-x-x---3---2---5-x-x------------------------ 
E/ 0-x-x-----------3-x-x----333/555\222/3---    X6 
 
 
E/ ------------          --------- 
B/ ------------          --------- 
G/ ------------        --------- 
D/ 3-0-0-0---          ---1/2/3      Do this part X2 
A/ 3-0-0-0---          ---1/2/3 
E/ 3-0-0-0---  X15     ---1/2/3 
 
Burton starts singing 
 
E/ ------------          --------- 
B/ ------------          --------- 
G/ ------------        --------- 
D/ 3-0-0-0---          ---1/2/3      Do this part X2 
A/ 3-0-0-0---          ---1/2/3 
E/ 3-0-0-0---  X15     ---1/2/3 
 
Play intro X4here 
 
Then end with 
 
E/ ------------           
B/ ------------           
G/ ------------           
D/ 3-0-0-0---                 
A/ 3-0-0-0---           
E/ 3-0-0-0--- 
 
Just repeat all this X3 for all of the rest of the song and that?s all of it. 
 
*FF* 
 
If you want the lyrics to this song just email me at [email protected] and I will be happy to give you them. 
 

		  

auto scroll beats size up size down change color hide chords drawings
tab show chords e-chords YouTube Clip e-chords hide all tabs e-chords go to top tab

share