Faux Tales

Atlas

Faux Tales

tabs

by  VSWORLD

save to print version add songbook text version e-mail correct tuner
chordsukulelecavacokeyboardtabbassdrumsharmonicaflute Guitar Pro
close

there isn't a video lesson for this song

chords

Atlas

Key:  C# More
Atlas Key G#G#
Atlas Key AA
Atlas Key A#A#
Atlas Key BB(one step down)
Atlas Key CC(half step down)
Atlas Key C#C#(original key)
Atlas Key DD(half step up)
Atlas Key D#D#(one step up)
Atlas Key EE
Atlas Key FF
Atlas Key F#F#
Atlas Key GG
	  		



Intro: 
                 * 
e|-----------------| 
B|---------------5-| G2 
G|-----------------|  
 |\/\/\/\/\/\/\/\/\| 
D|---2---2---2---2-| 
A|-4---4---4---4---| G, x6(just G) 
E|-----------------| 
 (*) ?? G2 starts in the end of 6th repeat. Note how the melody begins one 8th 
       note before, and ends one 8th note after the end of the verse. Same  
       applies for the Chorus too. 


Instrumental Verse: 

e|-7---------------|---------5-------|-4---------------|---------5-------| 
B|-----------------|-------5-------5-|-----------------|-------5-------5-| G2 
G|-----------------|-----------------|-----------------|-----------------| 
 |\/\/\/\/\/\/\/\/\/\/\/\/\/\/\/\/\/\/\/\/\/\/\/\/\/\/\/\/\/\/\/\/\/\/\/\| 
D|---2---2---2---2-|---2---2---2---2-|---2---2---2---2-|---2---2---2---2-| 
A|-4---4---4---4---|-4---4---2---2---|-----------------|-----------------| G 
E|-----------------|-----------------|-2---2---2---2---|-2---2---4---4---|\ 
                                                                           x2 
e|-4---------------|---------5-------|-4---------------|-----------------|/ 
B|-----------------|-------5-------5-|-----------------|---------------5-| G2 
G|-----------------|-----------------|-----------------|-----------------| 
 |\/\/\/\/\/\/\/\/\/\/\/\/\/\/\/\/\/\/\/\/\/\/\/\/\/\/\/\/\/\/\/\/\/\/\/\| 
D|---2---2---2---2-|---2---2---2---2-|---2---2---2---2-|---2---2---2---2-| 
A|-0---0---0---0---|-0---0-----------|-4---4---4---4---|-4---4---4---4---| G 
E|-----------------|---------2---2---|-----------------|-----------------| 


e|-9---------------|---------------|-5---------------|---------4-------| 
B|-----------------|---------------5-|-----------------|-------5-------5-| G2 
G|-----------------|-------9---------|-----------------|-----------------| 
 |\/\/\/\/\/\/\/\/\/\/\/\/\/\/\/\/\/\/\/\/\/\/\/\/\/\/\/\/\/\/\/\/\/\/\/\| 
D|---2---2---2---2-|---2---2---2---2-|---2---2---2---2-|---2---2---2---2-| 
A|-0---0---0---0---|-0---0---2---2---|-----------------|-----------------| G 
E|-----------------|-----------------|-2---2---2---2---|-2---2---0---0---|\ 
                                                                           x2 
                                                                          /* 
e|-7---------------|---------5-------|-4---------------|-----------------|-7-| 
B|-----------------|-------5-------5-|-----------------|---------------5-|---| G2 
G|-----------------|-----------------|-----------------|-----------------|---| 
 |\/\/\/\/\/\/\/\/\/\/\/\/\/\/\/\/\/\/\/\/\/\/\/\/\/\/\/\/\/\/\/\/\/\/\/\|\/\| 
D|---2---2---2---2-|---2---2---2---2-|---2---2---2---2-|---2---2---2---2-|---| 
A|-0---0---0---0---|-0---0-----------|-4---4---4---4---|-4---4---4---4---|---| G 
E|-----------------|---------2---2---|-----------------|-----------------|---| 
 (*) ?? play in the end of 2nd repeat 


Pre-Chorus 

   C#m (slowly fade in) 
e|-x---------------| 
B|-5---------------|  
G|-6---------------| G, x8 
D|-6---------------| 
A|-4---------------|  
E|-----------------| 


Instrumental Chorus (strum away! ; G2 plays the same melody as in the verse): 

   C#m                       B         F#m                       G#m 
e|-4---------------|---------2-------|-2---------------|---------4-------| 
B|-5---------------|---------4-------|-2---------------|---------4-------| 
G|-6---------------|---------4-------|-2---------------|---------4-------| G 
D|-6---------------|---------4-------|-4---------------|---------6-------| 
A|-4---------------|---------2-------|-4---------------|---------6-------| 
E|-----------------|-----------------|-2---------------|---------4-------|\ 
   A                         F#m       C#m                                 x2 
e|-0---------------|---------2-------|-4---------------|-----------------|/ 
B|-2---------------|---------2-------|-5---------------|-----------------| 
G|-2---------------|---------2-------|-6---------------|-----------------| G 
D|-2---------------|---------4-------|-6---------------|-----------------| 
A|-0---------------|---------4-------|-4---------------|-----------------| 
E|-----------------|---------2-------|-----------------|-----------------| 

   A                         B         F#m                       E 
e|-0---------------|---------2-------|-2---------------|---------0-------| 
B|-2---------------|---------4-------|-2---------------|---------0-------| 
G|-2---------------|---------4-------|-2---------------|----------------| G 
D|-2---------------|---------4-------|-4---------------|---------2-------| 
A|-0---------------|---------2-------|-4---------------|---------2-------| 
E|-----------------|-----------------|-2---------------|---------0-------|\ 
   A                         F#m       C#m                                 x2 
e|-0---------------|---------2-------|-4---------------|-----------------|/ 
B|-2---------------|---------2-------|-5---------------|-----------------| 
G|-2---------------|---------2-------|-6---------------|-----------------| G 
D|-2---------------|---------4-------|-6---------------|-----------------| 
A|-0---------------|---------4-------|-4---------------|-----------------| 
E|-----------------|---------2-------|-----------------|-----------------| 



e|-7---------------|-----------------|-----------------|-----------------| 
B|-----------------|-----------------|-----------------|---------------5-| G2 
G|-----------------|-----------------|-----------------|-----------------| 
 |\/\/\/\/\/\/\/\/\/\/\/\/\/\/\/\/\/\/\/\/\/\/\/\/\/\/\/\/\/\/\/\/\/\/\/\| 
D|---------------2-|---2---2---2---2-|---2---2---2---2-|---2---2---2---2-| 
A|-------------4---|-4---4---4---4---|-4---4---4---4---|-4---4---4---4---| G 
E|-----------------|-----------------|-----------------|-----------------| 


Instrumental verse 

Pre-Chorus 

Instrumental Chorus 
		  

Full key step upFull key step up
Half key step upHalf key step up
Half key step downHalf key step down
Full key step downFull key step down
hide glossary

See also:

tabs Deep Purple - Burn tabs Deep Purple - No No No tabs Deep Purple - Smoke on the water(ver. 2) tabs Deep Purple - Time To Kill tabs Deep Purple - Smoke on The Water (ver.3) tabs Deep Purple - Fireball
e-chords

Other versions:

tabs Parkway Drive - Atlas tabs Faux Tales - Atlas tabs Metallica - Atlas Rise
auto scroll beats size up size down change color hide chords drawings
tab show chords e-chords YouTube Clip e-chords hide all tabs e-chords go to top tab

share