Fatso Jetson

Party Pig

Fatso Jetson

tabs

by  HUGO_RODRIGUES

save to print version add songbook text version e-mail correct tuner
chordsukulelecavacokeyboardtabbassdrumsharmonicaflute Guitar Pro
close

there isn't a video lesson for this song

chords

Party Pig

	  		
Riff 1 
D|-------------------------------------------------------------| 
B|-------------------------------------9-6-9-6-----9-6-9-6-----| 
G|-2-2-2-2-2-2-2-2-0-0-0-0-0-0-0-0-6-6-9-6-9-6-6-6-9-6-9-6-6-6-| 
D|-2-2-2-2-2-2-2-2-0-0-0-0-0-0-0-0-6-6-6-6-6-6-6-6-6-6-6-6-6-6-| 
G|-2-2-2-2-2-2-2-2-0-0-0-0-0-0-0-0-6-6---------6-6---------6-6-| 
D|-------------------------------------------------------------| 

Riff 2 
D|---------------------------------------------------------------------| 
B|---------------------------------------------9-6-9-6-----9-6-9-6-----| 
G|-10-10-10-10-10-10-10-10-0-0-0-0-0-0-0-0-6-6-9-6-9-6-6-6-9-6-9-6-6-6-| 
D|-10-10-10-10-10-10-10-10-0-0-0-0-0-0-0-0-6-6-6-6-6-6-6-6-6-6-6-6-6-6-| 
G|-10-10-10-10-10-10-10-10-0-0-0-0-0-0-0-0-6-6---------6-6---------6-6-| 
D|---------------------------------------------------------------------| 

Riff 3 
D|----------------------------------------4h6~~6-6p4-------| *there are two licks playing a harmony. 
B|------------------------------------4h6-------------6~~--|  this is the one i could make 
G|-3-3-3-3-3-3-3-3-5-5-5-5-5-5-5-5-4~~--------------4------|  out better 
D|-3-3-3-3-3-3-3-3-5-5-5-5-5-5-5-5-------------------------| 
G|-3-3-3-3-3-3-3-3-5-5-5-5-5-5-5-5-------------------------| 
D|---------------------------------------------------------| 


Chorus 
                                                             *guitar harmony*             
D|-7--x-x--7-------7--x-x--7--x-x---------------------------------|    |------------------------------| 
B|-7--x-x--7--x-x--7--x-x--7--x-x---------------------------------|    |-13p10-13p10~~----------------| 
G|-4--x-x--4--x-x--4--x-x--4--x-x-/10--13p10-13p10~~--------------|*or*|---------------12-12-13-14~~--| 
D|-4--x-x--4--x-x--4--x-x--4--x-x-/10----------------10-10-11-12--|    |------------------------------| 
G|-4--x-x--4--x-x--4--x-x--4--x-x-/10-----------------------------|    |------------------------------| 
D|----------------------------------------------------------------|    |------------------------------| 
(another option besides have to choose one of the two harmonies would be to play them both like parts 
 of a chord. it's not as sharp and clear that way but at least you're getting all that dissonant goodness)  


Bridge 

D|-10------7-------4-------10------7-------3----2--0--2--3--| 
B|-10------7-------4-------10------7-------3----3--0--3--3--| 
G|-7-------4-------1-------7-------4-------0----------------| 
D|-7-------4-------1-------7-------4-------0----------------| 
G|-7-------4-------1-------7-------4-------0----------------| 
D|----------------------------------------------------------| 


Outro 

the outro is the same as the bridge, except when you land on the G there are a few variations, listed 
below 

D|-3----5--3--5-3--|       end of this  D|-3----2--0--2-0----| 
B|-3----5--3--5-3--| 2x                 B|-3----3--3--3-3----| 
G|-0---------------|                    G|-0-----------------|                                        
D|-0---------------|                    D|-0-----------------|      
G|-0---------------|                    G|-0-----------------|   
D|-----------------|                    D|-------------------|      
                   
************************************ 

| x  Dead note 
| h  Hammer-on 
| p  Pull-off 
| /  Slide up 
| ~  Vibrato 

************************************ 
		  

Full key step upFull key step up
Half key step upHalf key step up
Half key step downHalf key step down
Full key step downFull key step down
hide glossary

See also:

tabs Van Halen - Jump tabs The Doors - Roadhouse Blues tabs John Mayer - Belief tabs The Doors - People Are Strange tabs Guns N' Roses - Sweet Child o' mine tabs Aerosmith - Dream On
e-chords

Other versions:

tabs Fatso Jetson - Party Pig
auto scroll beats size up size down change color hide chords drawings
tab show chords e-chords YouTube Clip e-chords hide all tabs e-chords go to top tab

share