Fatso Jetson

Ive Got The Shame

Fatso Jetson

tabs

by  FERNSANTANA

save to print version add songbook text version e-mail correct tuner
chordsukulelecavacokeyboardtabbassdrumsharmonicaflute Guitar Pro
close

there isn't a video lesson for this song

chords

Ive Got The Shame

	  		



e|-----------------------------------------------| 
B|-----------------------------------------------| 
G|---------------5-5---------------5-5-----------| 
D|---------------5-5---------------5-5-----------| 
A|-------5-------3-3-------5-------3-3-----------| 
D|-0h3p0---0h3p0-----0h3p0---0h3p0---------------| 

e|-----------------------------------------------| 
B|-----------------------------------------------| 
G|---------------5-5---------------5-5-----------| 
D|---------------5-5---------------5-5-----------| 
A|-------5-------3-3-------5-------3-3-----------| 
D|-0h3p0---0h3p0-----0h3p0---0h3p0---------------| 

e|-----------------------------------------------| 
B|-----------------------------------------------| 
G|---------------5-5---------------5-5-----------| 
D|---------------5-5---------------5-5-----------| 
A|-------5-------3-3-------5-------3-3-----------| 
D|-0h3p0---0h3p0-----0h3p0---0h3p0---------------| 

e|-----------------------------------------------| 
B|-----------------------------------------------| 
G|---------------5-5---------------5-5-----------| 
D|---------------5-5---------------5-5-----------| 
A|-------5-------3-3-------5-------3-3-----------| 
D|-0h3p0---0h3p0-----0h3p0---0h3p0---------------| 

e|-----------------------------------------------| 
B|-----------------------------------------------| 
G|---------------5-5---------------5-5-----------| 
D|---------------5-5---------------5-5-----------| 
A|-------5-------3-3-------5-------3-3-----------| 
D|-0h3p0---0h3p0-----0h3p0---0h3p0---------------| 

e|-----------------------------------------------------------| 
B|-----------------------------------------------------------| 
G|---------------5-5---------------5-5-----------------------| 
D|---------------5-5---------------5-5-----------------------| 
A|-------5-------3-3-------5-------3-3---------0-3-5-3-------| 
D|-0h3p0---0h3p0-----0h3p0---0h3p0-----0h3-3-5---------5-4-3-| 

  Guitar 1                Guitar 2 
e|-----------------------|-----------------------| 
B|-----------------------|-----------------------| 
G|-------------------4---|-----------------4-----| 
D|---------------0-3---3-|-7-6-5-3-----0-3---3---| 
A|---------0-3-5---------|---------5-5-----------| 
D|-0h3-3-5---------------|-----------------------| 

e|-----------------------------------------------| 
B|-----------------------------------------------| 
G|-----------------------------------------------| 
D|-----------------------------------------------| 
A|---------0-3-5-3-------------------------------| 
D|-0h3-3-5---------5-4-3-------------------------| 

  Guitar 1                Guitar 2 
e|-----------------------|-----------------------| 
B|-----------------------|-----------------------| 
G|-------------------4---|-----------------4-----| 
D|---------------0-3---3-|-7-6-5-3-----0-3---3---| 
A|---------0-3-5---------|---------5-5-----------| 
D|-0h3-3-5---------------|-----------------------| 

e|-----------------------------------------------| 
B|-----------------------------------------------| 
G|-----------------------------------------------| 
D|-----------------------------------------------| 
A|---------0-3-5-3-------------------------------| 
D|-0h3-3-5---------5-4-3-------------------------| 

  Guitar 1                Guitar 2 
e|-----------------------|-----------------------| 
B|-----------------------|-----------------------| 
G|-------------------4---|-----------------4-----| 
D|---------------0-3---3-|-7-6-5-3-----0-3---3---| 
A|---------0-3-5---------|---------5-5-----------| 
D|-0h3-3-5---------------|-----------------------| 

e|-----------------------------------------------| 
B|-----------------------------------------------| 
G|-----------------------------------------------| 
D|-----------------------------------------------| 
A|---------0-3-5-3-------------------------------| 
D|-0h3-3-5---------5-4-3-------------------------| 

  Guitar 1                Guitar 2 
e|-----------------------|-----------------------| 
B|-----------------------|-----------------------| 
G|-------------------4---|-----------------4-----| 
D|---------------0-3---3-|-7-6-5-3-----0-3---3---| 
A|---------0-3-5---------|---------5-5-----------| 
D|-0h3-3-5---------------|-----------------------| 

e|-----------------------------------------------| 
B|-----------------------------------------------| 
G|---------------5-5---------------5-5-----------| 
D|---------------5-5---------------5-5-----------| 
A|-------5-------3-3-------5-------3-3-----------| 
D|-0h3p0---0h3p0-----0h3p0---0h3p0---------------| 

e|-----------------------------------------------| 
B|-----------------------------------------------| 
G|---------------5-5---------------5-5-----------| 
D|---------------5-5---------------5-5-----------| 
A|-------5-------3-3-------5-------3-3-----------| 
D|-0h3p0---0h3p0-----0h3p0---0h3p0---------------| 

e|-----------------------------------------------| 
B|-----------------------------------------------| 
G|---------------5-5---------------5-5-----------| 
D|---------------5-5---------------5-5-----------| 
A|-------5-------3-3-------5-------3-3-----------| 
D|-0h3p0---0h3p0-----0h3p0---0h3p0---------------| 

e|-----------------------------------------------| 
B|-----------------------------------------------| 
G|---------------5-5---------------5-5-----------| 
D|---------------5-5---------------5-5-----------| 
A|-------5-------3-3-------5-------3-3-----------| 
D|-0h3p0---0h3p0-----0h3p0---0h3p0---------------| 

e|-----------------------------------------------| 
B|-----------------------------------------------| 
G|---------------5-5---------------5-5-----------| 
D|---------------5-5---------------5-5-----------| 
A|-------5-------3-3-------5-------3-3-----------| 
D|-0h3p0---0h3p0-----0h3p0---0h3p0---------------| 

e|-----------------------------------------------------------| 
B|-----------------------------------------------------------| 
G|---------------5-5---------------5-5-----------------------| 
D|---------------5-5---------------5-5-----------------------| 
A|-------5-------3-3-------5-------3-3---------0-3-5-3-------| 
D|-0h3p0---0h3p0-----0h3p0---0h3p0-----0h3-3-5---------5-4-3-| 

  Guitar 1                Guitar 2 
e|-----------------------|-----------------------| 
B|-----------------------|-----------------------| 
G|-------------------4---|-----------------4-----| 
D|---------------0-3---3-|-7-6-5-3-----0-3---3---| 
A|---------0-3-5---------|---------5-5-----------| 
D|-0h3-3-5---------------|-----------------------| 

e|-----------------------------------------------| 
B|-----------------------------------------------| 
G|-----------------------------------------------| 
D|-----------------------------------------------| 
A|---------0-3-5-3-------------------------------| 
D|-0h3-3-5---------5-4-3-------------------------| 

  Guitar 1                Guitar 2 
e|-----------------------|-----------------------| 
B|-----------------------|-----------------------| 
G|-------------------4---|-----------------4-----| 
D|---------------0-3---3-|-7-6-5-3-----0-3---3---| 
A|---------0-3-5---------|---------5-5-----------| 
D|-0h3-3-5---------------|-----------------------| 

e|-----------------------------------------------| 
B|-----------------------------------------------| 
G|-----------------------------------------------| 
D|-----------------------------------------------| 
A|---------0-3-5-3-------------------------------| 
D|-0h3-3-5---------5-4-3-------------------------| 

  Guitar 1                Guitar 2 
e|-----------------------|-----------------------| 
B|-----------------------|-----------------------| 
G|-------------------4---|-----------------4-----| 
D|---------------0-3---3-|-7-6-5-3-----0-3---3---| 
A|---------0-3-5---------|---------5-5-----------| 
D|-0h3-3-5---------------|-----------------------| 

e|-----------------------------------------------| 
B|-----------------------------------------------| 
G|-----------------------------------------------| 
D|-----------------------------------------------| 
A|---------0-3-5-3-------------------------------| 
D|-0h3-3-5---------5-4-3-------------------------| 

  Guitar 1                Guitar 2 
e|-----------------------|-----------------------| 
B|-----------------------|-----------------------| 
G|-------------------4---|-----------------4-----| 
D|---------------0-3---3-|-7-6-5-3-----0-3---3---| 
A|---------0-3-5---------|---------5-5-----------| 
D|-0h3-3-5---------------|-----------------------| 

e|-----------------------------------------------| 
B|-886b-----886b-----886b-----886b---------------| 
G|-886b-----886b-----886b-----886b---------------| 
D|-----------------------------------------------| 
A|-----------------------------------------------| 
D|------8-8------8-8------8-8------8-8-----------| 

e|-----------------------------------------------| 
B|-886b-----886b-----886b-----886b---------------| 
G|-886b-----886b-----886b-----886b---------------| 
D|-----------------------------------------------| 
A|-----------------------------------------------| 
D|------8-8------8-8------8-8------8-8\----------| 

e|-----------------------------------------------| 
B|-----------------------------------------------| 
G|---------------5-5---------------5-5-----------| 
D|---------------5-5---------------5-5-----------| 
A|-------5-------3-3-------5-------3-3-----------| 
D|-0h3p0---0h3p0-----0h3p0---0h3p0---------------| 

e|-----------------------------------------------| 
B|-----------------------------------------------| 
G|---------------5-5---------------5-5-----------| 
D|---------------5-5---------------5-5-----------| 
A|-------5-------3-3-------5-------3-3-----------| 
D|-0h3p0---0h3p0-----0h3p0---0h3p0---------------| 

e|-----------------------------------------------| 
B|-----------------------------------------------| 
G|---------------5-5---------------5-5-----------| 
D|---------------5-5---------------5-5-----------| 
A|-------5-------3-3-------5-------3-3-----------| 
D|-0h3p0---0h3p0-----0h3p0---0h3p0---------------| 

e|-----------------------------------------------| 
B|-----------------------------------------------| 
G|---------------5-5---------------5-5-----------| 
D|---------------5-5---------------5-5-----------| 
A|-------5-------3-3-------5-------3-3-----------| 
D|-0h3p0---0h3p0-----0h3p0---0h3p0---------------| 

e|-----------------------------------------------------------| 
B|-----------------------------------------------------------| 
G|---------------5-5---------------5-5-----------------------| 
D|---------------5-5---------------5-5-----------------------| 
A|-------5-------3-3-------5-------3-3---------0-3-5-3-------| 
D|-0h3p0---0h3p0-----0h3p0---0h3p0-----0h3-3-5---------5-4-3-| 

  Guitar 1                Guitar 2 
e|-----------------------|-----------------------| 
B|-----------------------|-----------------------| 
G|-------------------4---|-----------------4-----| 
D|---------------0-3---3-|-7-6-5-3-----0-3---3---| 
A|---------0-3-5---------|---------5-5-----------| 
D|-0h3-3-5---------------|-----------------------| 

e|-----------------------------------------------| 
B|-----------------------------------------------| 
G|-----------------------------------------------| 
D|-----------------------------------------------| 
A|---------0-3-5-3-------------------------------| 
D|-0h3-3-5---------5-4-3-------------------------| 

  Guitar 1                Guitar 2 
e|-----------------------|-----------------------| 
B|-----------------------|-----------------------| 
G|-------------------4---|-----------------4-----| 
D|---------------0-3---3-|-7-6-5-3-----0-3---3---| 
A|---------0-3-5---------|---------5-5-----------| 
D|-0h3-3-5---------------|-----------------------| 

e|-----------------------------------------------| 
B|-----------------------------------------------| 
G|-----------------------------------------------| 
D|-----------------------------------------------| 
A|---------0-3-5-3-------------------------------| 
D|-0h3-3-5---------5-4-3-------------------------| 

  Guitar 1                Guitar 2 
e|-----------------------|-----------------------| 
B|-----------------------|-----------------------| 
G|-------------------4---|-----------------4-----| 
D|---------------0-3---3-|-7-6-5-3-----0-3---3---| 
A|---------0-3-5---------|---------5-5-----------| 
D|-0h3-3-5---------------|-----------------------| 

e|-----------------------------------------------| 
B|-----------------------------------------------| 
G|-----------------------------------------------| 
D|-----------------------------------------------| 
A|---------0-3-5-3-------------------------------| 
D|-0h3-3-5---------5-4-3-------------------------| 

  Guitar 1                Guitar 2 
e|-----------------------|-----------------------| 
B|-----------------------|-----------------------| 
G|-------------------4---|-----------------4-----| 
D|---------------0-3---3-|-7-6-5-3-----0-3---3---| 
A|---------0-3-5---------|---------5-5-----------| 
D|-0h3-3-5---------------|-----------------------| 

e|-----------------------------------------------| 
B|-----------------------------------------------| 
G|---------------5-5---------------5-5-----------| 
D|---------------5-5---------------5-5-----------| 
A|-------5-------3-3-------5-------3-3-----------| 
D|-0h3p0---0h3p0-----0h3p0---0h3p0---------------| 

e|-----------------------------------------------| 
B|-----------------------------------------------| 
G|---------------5-5---------------5-5\----------| 
D|---------------5-5---------------5-5\----------| 
A|-------5-------3-3-------5-------3-3\----------| 
D|-0h3p0---0h3p0-----0h3p0---0h3p0---------------| 




Used Tab Symbols 
_____________________ 
 h  = Hammer On 
 p  = Pull Off 
 ~  = Sustain 
 v  = Vibrato 
 w  = Wide Vibrato 
 b  = Bend 
 hb = Bend Halfway 
 /  = Slide Up 
 \  = Slide Down 
 *  = Trill 
 x  = Muted Note 
 H  = Harmonic 
 t  = Right Hand Tap 
 :  = Let Ring 
_____________________ 
		  

See also:

tabs Van Halen - Jump tabs The Doors - Roadhouse Blues tabs John Mayer - Belief tabs The Doors - People Are Strange tabs Guns N' Roses - Sweet Child o' mine tabs Aerosmith - Dream On
e-chords

Other versions:

tabs Fatso Jetson - Ive Got The Shame
auto scroll beats size up size down change color hide chords drawings
tab show chords e-chords YouTube Clip e-chords hide all tabs e-chords go to top tab

share