Falling In Reverse

Rolling Stone

Falling In Reverse

tabs

by  FERNSANTANA

save to print version add songbook text version e-mail correct tuner
chordsukulelecavacokeyboardtabbassdrumsharmonicaflute Guitar Pro
close

there isn't a video lesson for this song

chords

Rolling Stone

	  		

Intro 

e|---------------------------------------------------------------------------| 
B|---------------------------------------------------------------------------| 
G|---------------------------------------------------------------------------| 
D|---------------------------------------------------------------------------| 
A|---------------5p3---------------------------------------------------------| 
E|-0-2b--0-3p2-0-----0-2-3-2-3-----------------------------------------------| 

e|------------------------------------------------------------------------------| 
B|------------------------------------------------------------------------------| 
G|------------------------------------------------------------------------------| 
D|------------------------------------------------------------------------------| 
A|---------------5p3--5-3---5-3---5-3-------------------------------------------| 
E|-0-2b--0-3p2-0----------2-----2-----------------------------------------------| 


Verse 

e|---------------------------------------------------------------------------| 
B|---------------------------------------------------------------------------| 
G|---------------------------------------------------------------------------| 
D|----------------3-----------------5-----------------3----------------------| 
A|----------------3-----------------5-----------------3----------------------| 
E|-0-000-0000-0-0-3--0-000-0000-0-0-5--0-000-0000-0-0-3--0-000-0000-0-0------| 

e|---------------------------------------------------------------------------| 
B|---------------------------------------------------------------------------| 
G|---------------------------------------------------------------------------| 
D|---------------------------------------------------------------------------| 
A|--8----8-10-8-5------------------------------------------------------------| 
E|----00---------------------------------------------------------------------| 


Verse lead 

Just tremolo pick the d string open and hit the notes indicated 

e|---------------------------------------------------------------------------| 
B|---------------------------------------------------------------------------| 
G|---------------------------------------------------------------------------| 
D|-12-8-10-7-8-5-5-5h7-------------------------------------------------------| 
A|---------------------------------------------------------------------------| 
E|---------------------------------------------------------------------------| 

Chorus 

Lead 

e|---------------------------------------------------------------------------| 
B|---------------------------------------------------------------------------| 
G|-14-12-17-15-->-----17-16-14-12-10-9-10-12---------------------------------|                > 
D|--x--x--x--x---->x2--x--x--x--x--x-x--x--x---------------------------------|                > 
A|-12-10-15-13-->-----15-14-12-10--8-7--8-10---------------------------------| 
E|---------------------------------------------------------------------------| 

Rhythm 

e|------------------------------------------------------------------------------| 
B|------------------------------------------------------------------------------| 
G|------------------------------------------------------------------------------| 
D|-3--0--5--3-2--3--0--5--3-2-10--9--7--5--3--3--5--6---------------------------| 
A|-1--0--3--3-2--1--0--3--3-2--8--7--5--3--1--3--3--4---------------------------| 
E|----0-----3-2-----0-----3-2-----------------3---------------------------------| 

Breakdown is pretty simple but end with 

Lead 

e|---------------------------------------------------------------------------| 
B|---------------------------------------------------------------------------| 
G|-10------------------------------------------------------------------------| 
D|--x------------------------------------------------------------------------| 
A|--8------------------------------------------------------------------------| 
E|---------------------------------------------------------------------------| 

Rhythm 

e|---------------------------------------------------------------------------| 
B|---------------------------------------------------------------------------| 
G|---------------------------------------------------------------------------| 
D|--7------------------------------------------------------------------------| 
A|--5------------------------------------------------------------------------| 
E|---------------------------------------------------------------------------| 

Last Chorus lead 

Play first part twice like first Chorus 

e|---------------------------------------------------------------------------| 
B|---------------------------------------------------------------------------| 
G|-16-14-19-17->----19-17-16-14-12-10-12-14----------------------------------|               > 
D|--x--x--x--x--->x2-x--x--x--x--x--x--x--x----------------------------------|               > 
A|-14-12-17-15->----17-15-14-12-10--9-10-12----------------------------------| 
E|---------------------------------------------------------------------------| 

Last Chorus rythm 

e|----------------------------------------| 
B|----------------------------------------| 
G|----------------------------------------| 
D|--5--2--7--5-4->-----12-10-9-7-5-5-7-8--|                 > 
A|--3--2--5--5-4--->x2-10--9-7-5-3-5-5-6--|                 > 
E|-----2-----5-4->-----------------5------| 

Outro 

e|---------------------------------------------------------------------------| 
B|---------------------------------------------------------------------------| 
G|---------------------------------------------------------------------------| 
D|---------------------------------------------------------------------------| 
A|-------------7p5-----------------------------------------------------------| 
E|-2-4b--5-4-5-----4-5-4-5---------------------------------------------------| 


e|---------------------------------------------------------------------------| 
B|---------------------------------------------------------------------------| 
G|---------------------------------------------------------------------------| 
D|---------------------------------------------------------------------------| 
A|-------------7p5----------7---7---7----------------------------------------| 
E|-2-4b--5-4-5-----4-5-4-5----5---5---5--------------------------------------| 




| /   slide up 
| \   slide down 
| h   hammer-on 
| p   pull-off 
| ~   vibrato 
| +   harmonic 
| x   Mute note 
| b   Bend 
| pb  Pre-bend 
| br  Bend release 
| pbr Pre-bend release 
| brb Bend release bend 

 
		  

See also:

tabs Incubus - 11 A.M. tabs Alesana - Apology tabs Incubus - I Miss You tabs Red Hot Chili Peppers - Otherside (intro) tabs Incubus - Megalomaniac tabs Good Charlotte - Predictable
e-chords

Other versions:

tabs Falling In Reverse - Rolling Stone tabs The Weeknd - Rolling Stone
auto scroll beats size up size down change color hide chords drawings
tab show chords e-chords YouTube Clip e-chords hide all tabs e-chords go to top tab

share