Falling In Reverse

Born To Lead

Falling In Reverse

tabs

by  HEBEALMEIDA

save to print version add songbook text version e-mail correct tuner
chordsukulelecavacokeyboardtabbassdrumsharmonicaflute Guitar Pro
close

there isn't a video lesson for this song

chords

Born To Lead

	  		

Guitar 1 

                                                      H        Q    E  E 
D||-------|-------|-------|-------|-------|-------|-----------------------| 
A||-------|-------|-------|-------|-------|-------|-----------------------| 
F||-------|-------|-------|-------|-------|-------|--10--------3----7--7--| 
C||-------|-------|-------|-------|-------|-------|--10--------3----7--7--| 
G||-------|-------|-------|-------|-------|-------|---8--------1----5--5--| 
C||-------|-------|-------|-------|-------|-------|-----------------------| 


             Pickslide 
  H          X         X    X    X    X    X    X    X    X    X    X    X    X 
-----------(30)------(29)-(28)-(27)-(26)-(25)-(24)-(23)-(22)-(21)-(20)-(19)-(18--| 
-----------(30)------(29)-(28)-(27)-(26)-(25)-(24)-(23)-(22)-(21)-(20)-(19)-(18--| 
--5------------------------------------------------------------------------------| 
--5------------------------------------------------------------------------------| 
--3------------------------------------------------------------------------------| 
---------------------------------------------------------------------------------| 


  S S S S S S S S S S S S S S S S    S S S S S S S S S S S S S S S S 
----------------------------------|----------------------------------| 
----------------------------------|----------------------------------| 
--7-7-7-7-7-7-7-7-7-7-7-7-7-7-7-7-|--5-5-5-5-5-5-5-5-5-5-5-5-5-5-5-5-| 
--7-7-7-7-7-7-7-7-7-7-7-7-7-7-7-7-|--5-5-5-5-5-5-5-5-5-5-5-5-5-5-5-5-| 
--5-5-5-5-5-5-5-5-5-5-5-5-5-5-5-5-|--3-3-3-3-3-3-3-3-3-3-3-3-3-3-3-3-| 
----------------------------------|----------------------------------| 


                                                              \1/ 
   S  S  S  S  S  S  S  S S S S S S S S S    S S S S S S S S  Q    E  E 
------------------------------------------|------------------------------| 
------------------------------------------|------------------------------| 
--10-10-10-10-10-10-10-10-3-3-3-3-7-7-7-7-|--5-5-5-5-5-5-5-5-10----L-----| 
--10-10-10-10-10-10-10-10-3-3-3-3-7-7-7-7-|--5-5-5-5-5-5-5-5-------------| 
---8--8--8--8--8--8--8--8-1-1-1-1-5-5-5-5-|--3-3-3-3-3-3-3-3-------------| 
------------------------------------------|------------------------------| 


    PM PM PM PM PM PM PM PM PM PM PM PM PM PM PM PM PM PM PM PM PM PM PM PM PM P 
  S T  T  T  T  T  T  T  T  T  T  T  T  T  T  T  T  T  T  T  T  T  T  T  T  T  T 
---------------------------------------------------------------------------------| 
---------------------------------------------------------------------------------| 
--7------------------------------------------------------------------------------| 
--7------------------------------------------------------------------------------| 
--5-5--5--5--5--5--5--5--5--5--5--5--5--5--5--5--5--5--5--5--5--5--5--5--5--5--5-| 
---------------------------------------------------------------------------------| 


    PM PM PM PM PM PM PM PM PM PM PM PM PM PM PM PM PM PM PM PM PM PM PM PM PM P 
  S T  T  T  T  T  T  T  T  T  T  T  T  T  T  T  T  T  T  T  T  T  T  T  T  T  T 
---------------------------------------------------------------------------------| 
---------------------------------------------------------------------------------| 
--5------------------------------------------------------------------------------| 
--5------------------------------------------------------------------------------| 
--3-3--3--3--3--3--3--3--3--3--3--3--3--3--3--3--3--3--3--3--3--3--3--3--3--3--3-| 
---------------------------------------------------------------------------------| 


     PM PM PM PM PM PM PM PM PM PM PM PM PM PM   PM PM PM PM PM PM   PM PM PM PM 
   S T  T  T  T  T  T  T  T  T  T  T  T  T  T  S T  T  T  T  T  T  S T  T  T  T 
--------------------------------------------------------------------------------| 
--------------------------------------------------------------------------------| 
--10-------------------------------------------3-------------------7------------| 
--10-------------------------------------------3-------------------7------------| 
---8-8--8--8--8--8--8--8--8--8--8--8--8--8--8--1-1--1--1--1--1--1--5-5--5--5--5-| 
--------------------------------------------------------------------------------| 


    PM PM PM PM PM PM PM PM PM PM PM PM PM PM 
  S T  T  T  T  T  T  T  T  T  T  T  T  T  T  Q      Q 
-----------------------------------------------------------| 
-----------------------------------------------------------| 
--5-------------------------------------------5------------| 
--5-------------------------------------------5----/12\----| 
--3-3--3--3--3--3--3--3--3--3--3--3--3--3--3--3----/12\----| 
---------------------------------------------------/12\----| 


    PM PM PM PM PM PM PM PM PM PM PM PM PM PM   PM PM PM PM   PM PM   PM PM 
  S T  T  T  T  T  T  T  T  T  T  T  T  T  T  S T  T  T  T  S T  T  S T  T  S 
------------------------------------------------------------------------------| 
------------------------------------------------------------------------------| 
--7-------------------------------------------7-------------7-----------------| 
--7-------------------------------------------7-------------7-------7-------7-| 
--5-5--5--5--5--5--5--5--5--5--5--5--5--5--5--5-5--5--5--5--5-5--5----5--5----| 
------------------------------------------------------------------------------| 


    PM PM PM PM PM PM PM PM PM PM PM PM PM PM   PM PM PM PM   PM PM   PM PM 
  S T  T  T  T  T  T  T  T  T  T  T  T  T  T  S T  T  T  T  S T  T  S T  T  S 
------------------------------------------------------------------------------| 
------------------------------------------------------------------------------| 
--5-------------------------------------------5-------------5-------5-------5-| 
--5-------------------------------------------5-------------5-------5-------5-| 
--3-3--3--3--3--3--3--3--3--3--3--3--3--3--3--3-3--3--3--3--3-3--3--3-3--3--3-| 
------------------------------------------------------------------------------| 


     PM PM PM PM PM PM PM PM PM PM PM PM PM PM   PM PM PM PM PM PM   PM PM PM PM 
   S T  T  T  T  T  T  T  T  T  T  T  T  T  T  S T  T  T  T  T  T  S T  T  T  T 
--------------------------------------------------------------------------------| 
--------------------------------------------------------------------------------| 
--10-------------------------------------------3-------------------7------------| 
--10-------------------------------------------3-------------------7------------| 
---8-8--8--8--8--8--8--8--8--8--8--8--8--8--8--1-1--1--1--1--1--1--5-5--5--5--5-| 
--------------------------------------------------------------------------------| 


    PM PM PM PM PM PM PM PM PM PM PM PM PM PM PM PM PM PM PM PM PM PM PM PM PM P 
  S T  T  T  T  T  T  T  T  T  T  T  T  T  T  T  T  T  T  T  T  T  T  T  T  T  T 
---------------------------------------------------------------------------------| 
---------------------------------------------------------------------------------| 
--5------------------------------------------------------------------------------| 
--5------------------------------------------------------------------------------| 
--3-3--3--3--3--3--3--3--3--3--3--3--3--3--3--3--3--3--3--3--3--3--3--3--3--3--3-| 
---------------------------------------------------------------------------------| 


  H        H 
--------------------| 
--------------------| 
--3-----------------| 
--3--------0--------| 
--1--------0--------| 
-----------0--------| 


    PM PM PM PM PM PM PM PM PM PM PM PM PM PM   PM PM PM PM PM PM 
  S T  T  T  T  T  T  T  T  T  T  T  T  T  T  S T  T  T  T  T  T  E  E 
------------------------------------------------------------------------| 
------------------------------------------------------------------------| 
--5-------------------------------------------7-------------------7--2--| 
--5-------------------------------------------7-------------------7--2--| 
--3-3--3--3--3--3--3--3--3--3--3--3--3--3--3--5-5--5--5--5--5--5--5--0--| 
------------------------------------------------------------------------| 


  H        H 
--------------------| 
--------------------| 
--3-----------------| 
--3--------0--------| 
--1--------0--------| 
-----------0--------| 


  PM PM PM PM PM PM PM PM PM PM PM PM PM PM PM PM 
  T  T  T  T  T  T  T  T  T  T  T  T  T  T  T  T   S S S S S S S S 
-------------------------------------------------------------------| 
-------------------------------------------------------------------| 
--------------------------------------------------10---------------| 
--------------------------------------------------10---------------| 
--8--8--8--8--8--8--8--8--8--8--8--8--8--8--8--8---8---------------| 
-------------------------------------------------------------------| 


   E   E   E   E   E   E   E   E     E  E  E  E  E  E  E  E 
----------------------------------|--------------------------| 
----------------------------------|--------------------------| 
--10--10--10--10--10--10--12--12--|--9--9--9--9--5--5--5--5--| 
---x---x---x---x---x---x---x---x--|--x--x--x--x--x--x--x--x--| 
---8---8---8---8---8---8--10--10--|--7--7--7--7--3--3--3--3--| 
----------------------------------|--------------------------| 


   E   E   E   E   E   E   E   E     E  E  E  E  S S E   E   E 
----------------------------------|-----------------------------| 
----------------------------------|-----------------------------| 
--10--10--10--10--10--10--12--12--|--9--9--9--9--9-9-9--10--10--| 
---x---x---x---x---x---x---x---x--|--x--x--x--x--x-x-x---x---x--| 
---8---8---8---8---8---8--10--10--|--7--7--7--7--7-7-7---8---8--| 
----------------------------------|-----------------------------| 


   E   E   E   E  E  E  E  E      E   E   E   E  E  E  E  E 
------------------------------|------------------------------| 
------------------------------|------------------------------| 
--14--14--14--14--9--9--9--9--|--10--10--10--10--3--3--3--3--| 
---x---x---x---x--x--x--x--x--|---x---x---x---x--x--x--x--x--| 
--12--12--12--12--7--7--7--7--|---8---8---8---8--1--1--1--1--| 
------------------------------|------------------------------| 


   E   E   E   E   E   E   E   E 
----------------------------------| 
----------------------------------| 
--10--10--10--10--12--12--10--10--| 
---x---x---x---x---x---x---x---x--| 
---8---8---8---8--10--10---8---8--| 
----------------------------------| 


                PM PM   PM PM   PM PM   PM PM    \1/ 
  E  E  E  E  S T  T  S T  T  S T  T  S T  T     H 
----------------------------------------------|-----------| 
----------------------------------------------|-----------| 
--9--9--9--9--5-------5-------5-------5-------|-----------| 
--x--x--x--x--5-------5-------5-------5-------|--5--------| 
--7--7--7--7--3-3--3--3-3--3--3-3--3--3-3--3--|-----------| 
----------------------------------------------|-----------| 


    PM PM PM PM PM PM PM PM PM PM PM PM PM PM PM PM PM PM PM PM PM PM PM PM PM P 
  S T  T  T  T  T  T  T  T  T  T  T  T  T  T  T  T  T  T  T  T  T  T  T  T  T  T 
---------------------------------------------------------------------------------| 
---------------------------------------------------------------------------------| 
--7------------------------------------------------------------------------------| 
--7------------------------------------------------------------------------------| 
--5-5--5--5--5--5--5--5--5--5--5--5--5--5--5--5--5--5--5--5--5--5--5--5--5--5--5-| 
---------------------------------------------------------------------------------| 


    PM PM PM PM PM PM PM PM PM PM PM PM PM PM PM PM PM PM PM PM PM PM PM PM PM P 
  S T  T  T  T  T  T  T  T  T  T  T  T  T  T  T  T  T  T  T  T  T  T  T  T  T  T 
---------------------------------------------------------------------------------| 
---------------------------------------------------------------------------------| 
--5------------------------------------------------------------------------------| 
--5------------------------------------------------------------------------------| 
--3-3--3--3--3--3--3--3--3--3--3--3--3--3--3--3--3--3--3--3--3--3--3--3--3--3--3-| 
---------------------------------------------------------------------------------| 


     PM PM PM PM PM PM PM PM PM PM PM PM PM PM   PM PM PM PM PM PM   PM PM PM PM 
   S T  T  T  T  T  T  T  T  T  T  T  T  T  T  S T  T  T  T  T  T  S T  T  T  T 
--------------------------------------------------------------------------------| 
--------------------------------------------------------------------------------| 
--10-------------------------------------------3-------------------7------------| 
--10-------------------------------------------3-------------------7------------| 
---8-8--8--8--8--8--8--8--8--8--8--8--8--8--8--1-1--1--1--1--1--1--5-5--5--5--5-| 
--------------------------------------------------------------------------------| 


    PM PM PM PM PM PM PM PM PM PM PM PM PM PM 
  S T  T  T  T  T  T  T  T  T  T  T  T  T  T  Q      Q 
-----------------------------------------------------------| 
-----------------------------------------------------------| 
--5-------------------------------------------5------------| 
--5-------------------------------------------5----/12\----| 
--3-3--3--3--3--3--3--3--3--3--3--3--3--3--3--3----/12\----| 
---------------------------------------------------/12\----| 


    PM PM PM PM PM PM PM PM PM PM PM PM PM PM   PM PM PM PM   PM PM   PM PM 
  S T  T  T  T  T  T  T  T  T  T  T  T  T  T  S T  T  T  T  S T  T  S T  T  S 
------------------------------------------------------------------------------| 
------------------------------------------------------------------------------| 
--7-------------------------------------------7-------------7-----------------| 
--7-------------------------------------------7-------------7-------7-------7-| 
--5-5--5--5--5--5--5--5--5--5--5--5--5--5--5--5-5--5--5--5--5-5--5----5--5----| 
------------------------------------------------------------------------------| 


    PM PM PM PM PM PM PM PM PM PM PM PM PM PM   PM PM PM PM   PM PM   PM PM 
  S T  T  T  T  T  T  T  T  T  T  T  T  T  T  S T  T  T  T  S T  T  S T  T  S 
------------------------------------------------------------------------------| 
------------------------------------------------------------------------------| 
--5-------------------------------------------5-------------5-------5-------5-| 
--5-------------------------------------------5-------------5-------5-------5-| 
--3-3--3--3--3--3--3--3--3--3--3--3--3--3--3--3-3--3--3--3--3-3--3--3-3--3--3-| 
------------------------------------------------------------------------------| 


     PM PM PM PM PM PM PM PM PM PM PM PM PM PM   PM PM PM PM PM PM   PM PM PM PM 
   S T  T  T  T  T  T  T  T  T  T  T  T  T  T  S T  T  T  T  T  T  S T  T  T  T 
--------------------------------------------------------------------------------| 
--------------------------------------------------------------------------------| 
--10-------------------------------------------3-------------------7------------| 
--10-------------------------------------------3-------------------7------------| 
---8-8--8--8--8--8--8--8--8--8--8--8--8--8--8--1-1--1--1--1--1--1--5-5--5--5--5-| 
--------------------------------------------------------------------------------| 


    PM PM PM PM PM PM PM PM PM PM PM PM PM PM PM PM PM PM PM PM PM PM PM PM PM P 
  S T  T  T  T  T  T  T  T  T  T  T  T  T  T  T  T  T  T  T  T  T  T  T  T  T  T 
---------------------------------------------------------------------------------| 
---------------------------------------------------------------------------------| 
--5------------------------------------------------------------------------------| 
--5------------------------------------------------------------------------------| 
--3-3--3--3--3--3--3--3--3--3--3--3--3--3--3--3--3--3--3--3--3--3--3--3--3--3--3-| 
---------------------------------------------------------------------------------| 


  H        H 
--------------------| 
--------------------| 
--3-----------------| 
--3--------0--------| 
--1--------0--------| 
-----------0--------| 


    PM PM PM PM PM PM PM PM PM PM PM PM PM PM   PM PM PM PM PM PM 
  S T  T  T  T  T  T  T  T  T  T  T  T  T  T  S T  T  T  T  T  T  E  E 
------------------------------------------------------------------------| 
------------------------------------------------------------------------| 
--5-------------------------------------------7-------------------7--2--| 
--5-------------------------------------------7-------------------7--2--| 
--3-3--3--3--3--3--3--3--3--3--3--3--3--3--3--5-5--5--5--5--5--5--5--0--| 
------------------------------------------------------------------------| 


  H        H 
--------------------| 
--------------------| 
--3-----------------| 
--3--------0--------| 
--1--------0--------| 
-----------0--------| 


  PM PM PM PM PM PM PM PM PM PM PM PM PM PM PM PM 
  T  T  T  T  T  T  T  T  T  T  T  T  T  T  T  T   S S S S  E  E 
-------------------------------------------------------------------| 
-------------------------------------------------------------------| 
--------------------------------------------------10---------------| 
--------------------------------------------------10-------10--L\--| 
--8--8--8--8--8--8--8--8--8--8--8--8--8--8--8--8---8-------10--L\--| 
-----------------------------------------------------------10--L\--| 


   E   E   E   E   E   E   E   E     E  E  E  E  E  E  E  E 
----------------------------------|--------------------------| 
----------------------------------|--------------------------| 
--10--10--10--10--10--10--12--12--|--9--9--9--9--5--5--5--5--| 
---x---x---x---x---x---x---x---x--|--x--x--x--x--x--x--x--x--| 
---8---8---8---8---8---8--10--10--|--7--7--7--7--3--3--3--3--| 
----------------------------------|--------------------------| 


   E   E   E   E   E   E   E   E     E  E  E  E  S S E   E   E 
----------------------------------|-----------------------------| 
----------------------------------|-----------------------------| 
--10--10--10--10--10--10--12--12--|--9--9--9--9--9-9-9--10--10--| 
---x---x---x---x---x---x---x---x--|--x--x--x--x--x-x-x---x---x--| 
---8---8---8---8---8---8--10--10--|--7--7--7--7--7-7-7---8---8--| 
----------------------------------|-----------------------------| 


   E   E   E   E  E  E  E  E      E   E   E   E  E  E  E  E 
------------------------------|------------------------------| 
------------------------------|------------------------------| 
--14--14--14--14--9--9--9--9--|--10--10--10--10--3--3--3--3--| 
---x---x---x---x--x--x--x--x--|---x---x---x---x--x--x--x--x--| 
--12--12--12--12--7--7--7--7--|---8---8---8---8--1--1--1--1--| 
------------------------------|------------------------------| 


   E   E   E   E   E   E   E   E 
----------------------------------| 
----------------------------------| 
--10--10--10--10--12--12--10--10--| 
---x---x---x---x---x---x---x---x--| 
---8---8---8---8--10--10---8---8--| 
----------------------------------| 


                PM PM   PM PM   PM PM   PM PM 
  E  E  E  E  S T  T  S T  T  S T  T  S T  T     E  E  E  E  E  E  E  E 
----------------------------------------------|--------------------------| 
----------------------------------------------|--------------------------| 
--9--9--9--9--5-------5-------5-------5-------|--------------------------| 
--x--x--x--x--5-------5-------5-------5-------|--0-----------------------| 
--7--7--7--7--3-3--3--3-3--3--3-3--3--3-3--3--|--0-----------------------| 
----------------------------------------------|--0-----------------------| 


   T        T        T        T        T        T        T        T        T 
   |--3--|  |--3--|  |--3--|  |--3--|  |--3--|  |--3--|  |--3--|  |--3--|  |--3- 
   T  T  T  T  T  T  T  T  T  T  T  T  T  T  T  T  T  T  T  T  T  T  T  T  T  T 
--22-17-15-22-17-15-------------------------------------------------------------| 
--------------------22-18-15-22-18-15-------------------------------------------| 
--------------------------------------19-15-12-19-15-12-------------------------| 
--------------------------------------------------------19-15-12-19-15-12-------| 
--------------------------------------------------------------------------19-15-| 
--------------------------------------------------------------------------------| 


  E  E  E  E  E  E  E  E     E  E  E  E  E  E  E  E 
--------------------------|--------------------------| 
--------------------------|--------------------------| 
-----------------------5--|--------------------------| 
--0--------------------5--|--0-----------7--5--3--2--| 
--0--------------------3--|--0-----------7--5--3--2--| 
--0-----------------------|--0-----------7--5--3--2--| 


                PH 
  E  E  E  E    H            S S S S S S S S S S S S S S S S 
--------------------------|----------------------------------| 
--------------------------|----------------------------------| 
--------------------------|--7-7-7-7-7-7-7-7-7-7-7-7-7-7-7-7-| 
--------------<>5b--------|--7-7-7-7-7-7-7-7-7-7-7-7-7-7-7-7-| 
--------------------------|--5-5-5-5-5-5-5-5-5-5-5-5-5-5-5-5-| 
--------------------------|----------------------------------| 


  S S S S S S S S S S S S S S S S    S S S S S S S S S S S S S S S S 
----------------------------------|----------------------------------| 
----------------------------------|----------------------------------| 
--5-5-5-5-5-5-5-5-5-5-5-5-5-5-5-5-|--3-3-3-3-3-3-3-3-2-2-2-2-2-2-2-2-| 
--5-5-5-5-5-5-5-5-5-5-5-5-5-5-5-5-|--3-3-3-3-3-3-3-3-2-2-2-2-2-2-2-2-| 
--3-3-3-3-3-3-3-3-3-3-3-3-3-3-3-3-|--1-1-1-1-1-1-1-1-0-0-0-0-0-0-0-0-| 
----------------------------------|----------------------------------| 


  S S S S S S S S S S S S S S S S 
----------------------------------| 
----------------------------------| 
----------------------------------| 
--0-0-0-0-0-0-0-0-0-0-0-0-0-0-0-0-| 
--0-0-0-0-0-0-0-0-0-0-0-0-0-0-0-0-| 
--0-0-0-0-0-0-0-0-0-0-0-0-0-0-0-0-| 


    PM PM PM PM PM PM PM PM PM PM PM PM PM PM PM PM PM PM PM PM PM PM PM PM PM P 
  S T  T  T  T  T  T  T  T  T  T  T  T  T  T  T  T  T  T  T  T  T  T  T  T  T  T 
---------------------------------------------------------------------------------| 
---------------------------------------------------------------------------------| 
--7------------------------------------------------------------------------------| 
--7------------------------------------------------------------------------------| 
--5-5--5--5--5--5--5--5--5--5--5--5--5--5--5--5--5--5--5--5--5--5--5--5--5--5--5-| 
---------------------------------------------------------------------------------| 


    PM PM PM PM PM PM PM PM PM PM PM PM PM PM PM PM PM PM PM PM PM PM PM PM PM P 
  S T  T  T  T  T  T  T  T  T  T  T  T  T  T  T  T  T  T  T  T  T  T  T  T  T  T 
---------------------------------------------------------------------------------| 
---------------------------------------------------------------------------------| 
--5------------------------------------------------------------------------------| 
--5------------------------------------------------------------------------------| 
--3-3--3--3--3--3--3--3--3--3--3--3--3--3--3--3--3--3--3--3--3--3--3--3--3--3--3-| 
---------------------------------------------------------------------------------| 


    PM PM PM PM PM PM PM PM PM PM PM PM PM PM   PM PM PM PM PM PM PM PM PM PM PM 
  S T  T  T  T  T  T  T  T  T  T  T  T  T  T  S T  T  T  T  T  T  T  T  T  T  T 
--------------------------------------------------------------------------------| 
--------------------------------------------------------------------------------| 
--3-------------------------------------------2---------------------------------| 
--3-------------------------------------------2---------------------------------| 
--1-1--1--1--1--1--1--1--1--1--1--1--1--1--1--0-0--0--0--0--0--0--0--0--0--0--0-| 
--------------------------------------------------------------------------------| 


    PM PM PM PM PM PM PM PM PM PM PM PM PM PM  PM PM PM PM PM PM PM PM PM PM PM 
  S T  T  T  T  T  T  T  T  T  T  T  T  T  T   T  T  T  T  T  T  T  T  T  T  T 
---------------------------------------------------------------------------------| 
---------------------------------------------------------------------------------| 
---------------------------------------------------------------------------------| 
--0-------------------------------------------12-12-12-12-12-12-12-12-12-12-12-1-| 
--0------------------------------------------------------------------------------| 
--0-0--0--0--0--0--0--0--0--0--0--0--0--0--0-------------------------------------| 


  S S S S S S S S S S S S S S S S    S S S S S S S S S S S S S S S S 
----------------------------------|----------------------------------| 
----------------------------------|----------------------------------| 
------------------5-5-5-5-5-5-5-5-|--7-7-7-7-7-7-7-7-3-3-3-3-3-3-3-3-| 
--3-3-3-3-3-3-3-3-5-5-5-5-5-5-5-5-|--7-7-7-7-7-7-7-7-3-3-3-3-3-3-3-3-| 
--3-3-3-3-3-3-3-3-3-3-3-3-3-3-3-3-|--5-5-5-5-5-5-5-5-1-1-1-1-1-1-1-1-| 
--3-3-3-3-3-3-3-3-----------------|----------------------------------| 


  S S S S S S S S S S S S S S S S    S S S S S S S S S S S S S S S S 
----------------------------------|----------------------------------| 
----------------------------------|----------------------------------| 
--7-7-7-7-7-7-7-7-5-5-5-5-5-5-5-5-|--3-3-3-3-3-3-3-3-2-2-2-2-2-2-2-2-| 
--7-7-7-7-7-7-7-7-5-5-5-5-5-5-5-5-|--3-3-3-3-3-3-3-3-2-2-2-2-2-2-2-2-| 
--5-5-5-5-5-5-5-5-3-3-3-3-3-3-3-3-|--1-1-1-1-1-1-1-1-0-0-0-0-0-0-0-0-| 
----------------------------------|----------------------------------| 


    PM PM PM PM PM PM PM PM PM PM PM PM PM PM PM PM PM PM PM PM PM PM PM PM PM P 
  S T  T  T  T  T  T  T  T  T  T  T  T  T  T  T  T  T  T  T  T  T  T  T  T  T  T 
---------------------------------------------------------------------------------| 
---------------------------------------------------------------------------------| 
--7------------------------------------------------------------------------------| 
--7------------------------------------------------------------------------------| 
--5-5--5--5--5--5--5--5--5--5--5--5--5--5--5--5--5--5--5--5--5--5--5--5--5--5--5-| 
---------------------------------------------------------------------------------| 


    PM PM PM PM PM PM PM PM PM PM PM PM PM PM PM PM PM PM PM PM PM PM PM PM PM P 
  S T  T  T  T  T  T  T  T  T  T  T  T  T  T  T  T  T  T  T  T  T  T  T  T  T  T 
---------------------------------------------------------------------------------| 
---------------------------------------------------------------------------------| 
--5------------------------------------------------------------------------------| 
--5------------------------------------------------------------------------------| 
--3-3--3--3--3--3--3--3--3--3--3--3--3--3--3--3--3--3--3--3--3--3--3--3--3--3--3-| 
---------------------------------------------------------------------------------| 


    PM PM PM PM PM PM PM PM PM PM PM PM PM PM   PM PM PM PM PM PM PM PM PM PM PM 
  S T  T  T  T  T  T  T  T  T  T  T  T  T  T  S T  T  T  T  T  T  T  T  T  T  T 
--------------------------------------------------------------------------------| 
--------------------------------------------------------------------------------| 
--3-------------------------------------------2---------------------------------| 
--3-------------------------------------------2---------------------------------| 
--1-1--1--1--1--1--1--1--1--1--1--1--1--1--1--0-0--0--0--0--0--0--0--0--0--0--0-| 
--------------------------------------------------------------------------------| 


    PM PM PM PM PM PM PM PM PM PM PM PM PM PM                             PM 
  S T  T  T  T  T  T  T  T  T  T  T  T  T  T  T T T T T T T T T T T T T T S 
-----------------------------------------------------------------------------| 
-----------------------------------------------------------------------------| 
----------------------------------------------7-7-7-7-7-7-7-7-7-7-7-7-7-7----| 
--0-------------------------------------------7-7-7-7-7-7-7-7-7-7-7-7-7-7-0--| 
--0-------------------------------------------5-5-5-5-5-5-5-5-5-5-5-5-5-5-0--| 
--0-0--0--0--0--0--0--0--0--0--0--0--0--0--0------------------------------0--| 


  PM 
  E  E  E  E  E  E  S S E 
---------------------------| 
---------------------------| 
--------------------5------| 
--0-----------------5------| 
--0-----------------3------| 
--0------------------------| 


  PM PM     PM PM     PM PM     PM PM PM     PM PM PM         PM PM PM PM PM PM 
  T  T  T T T  T  T T T  T  T T T  T  T  S T S  T  T  T T T T T  T  T  T  T  T 
--------------------------------------------------------------------------------| 
--------------------------------------------------------------------------------| 
--------------------------------------------------------------------------------| 
--0--0------0--0------0--0------0--0--0------0--0--0----------0--0--0--0--0--0--| 
--0--0------0--0------0--0------0--0--0------0--0--0----------0--0--0--0--0--0--| 
--0--0------0--0------0--0------0--0--0--3-L-0--0--0----------0--0--0--0--0--0--| 


  PM PM     PM PM         PM PM PM PM     PM   PM PM       PM PM PM 
  T  T  T T T  T  T T T T S  T  T  T  S T T  T T  T  T T S S  T  T  T T 
------------------------------------------------------------------------| 
------------------------------------------------------------------------| 
------------------------------------------------------------------------| 
--5--5------5--5----------5--5--5--5--3-L-3----3--3--------3--3--3------| 
--5--5------5--5----------5--5--5--5--3-L-3----3--3------5-3--3--3------| 
--5--5------5--5----------5--5--5--5--3-L-3----3--3--------3--3--3------| 


  PM PM     PM PM     PM PM     PM PM PM     PM PM PM         PM PM PM PM PM PM 
  T  T  T T T  T  T T T  T  T T T  T  T  S T S  T  T  T T T T T  T  T  T  T  T 
--------------------------------------------------------------------------------| 
--------------------------------------------------------------------------------| 
--------------------------------------------------------------------------------| 
--0--0------0--0------0--0------0--0--0------0--0--0----------0--0--0--0--0--0--| 
--0--0------0--0------0--0------0--0--0------0--0--0----------0--0--0--0--0--0--| 
--0--0------0--0------0--0------0--0--0--3-L-0--0--0----------0--0--0--0--0--0--| 


  PM PM     PM PM         PM PM PM PM     PM   PM PM       PM PM PM 
  T  T  T T T  T  T T T T S  T  T  T  S T T  T T  T  T T S S  T  T  T T 
------------------------------------------------------------------------| 
------------------------------------------------------------------------| 
------------------------------------------------------------------------| 
--5--5------5--5----------5--5--5--5--3-L-3----3--3--------3--3--3------| 
--5--5------5--5----------5--5--5--5--3-L-3----3--3------5-3--3--3------| 
--5--5------5--5----------5--5--5--5--3-L-3----3--3--------3--3--3------| 


  PM PM PM PM PM PM PM PM PM PM PM PM PM PM PM PM  PM PM PM PMPM PM PM PM PM PM 
  T  T  T  T  T  T  T  T  T  T  T  T  T  T  T  T   T  T  T  T T  T  T  T  T  T 
--------------------------------------------------------------------------------| 
--------------------------------------------------------------------------------| 
--------------------------------------------------------------------------------| 
--------------------------------------------------------------------------------| 
--------------------------------------------------------------------------------| 
--8--8--8--8--7--7--7--7--5--5--5--5--3--3--3--3--10-10-10-10-8--8--8--8--7--7--| 


  |--3--|  |--3--| 
  E  E  E  E  E  E  E  E  E   E 
---------------------------------| 
---------------------------------| 
-----------------------7--L\-----| 
-----------------------7--L\-----| 
--1--------3-----4--5------------| 
-----2--3-----3------------------| 


  PM PM PM PM PM PM         PM PM PM PM PM   PM PM PM PM PM   PM PM PM PM PM   P 
  |--3--|  |--3--| 
  S  S  S  S  S  S  S S S S X  X  X  X  T  T X  X  X  X  T  T X  X  X  X  T  T X 
---------------------------------------------------------------------------------| 
---------------------------------------------------------------------------------| 
---------------------------------------------------------------------------------| 
--0--0--0--0--0--0--0------------------------------------------------------------| 
--0--0--0--0--0--0--0------------------------------------------------------------| 
--0--0--0--0--0--0--0-------0--0--0--0--0----0--0--0--0--0----0--0--0--0--0----0-| 


  PM PM PM PM PM PM PM PM PM PM PM PM PM PM PM PM PM PM PM PM PM 
  |----3---|  |--3--|  |--3--|  |--3--|                          |--3--| 
  T  T  S  S  S  S  S  S  S  S  S  S  S  T  T  T  T  T  T  T  T  E  E  E 
--------------------------------------------------------------------------| 
--------------------------------------------------------------------------| 
--------------------------------------------------------------------------| 
--0--0--0--0--0--0--0--0--0--0--0--0--0-----------------------------------| 
--0--0--0--0--0--0--0--0--0--0--0--0--0--------------------------1--------| 
--0--0--0--0--0--0--0--0--0--0--0--0--0--8--8--8--8--7--7--7--7-----2--3--| 


            PM PM PM PM       PM PM     PM PM   PM 
            |--3--| 
  E  E  E   T  T  T  S  E  E  T  T  T T T  T  T T 
---------------------------------------------------| 
---------------------------------------------------| 
-----7--L\-----------------------------------------| 
-----7--L\--0--0--0--0-----------------------------| 
--3---------0--0--0--0-----------------------------| 
------------0--0--0--0--------0--0------0--0----0--| 


  PM PM PM                                  \1/ 
  S  S  S  S S S S S S S S E  E   S         W 
------------------------------------|----|-------------------| 
------------------------------------|----|-------------------| 
------------------------------------|----|-------------------| 
------------------------------------|----|-------------------| 
---------------------------5--L\----|----|-------------------| 
--0--0--0----3-2-3-5-3-2-0----------|----|--1----------------| 


  PM PM PM PM PM PM PM PM PM PM PM PM PM PM PM PM PM PM PM PM PM PM PM PM PM PM 
                                                  |--3--|  |--3--|  |--3--|  |-- 
  T  T  T  T  T  T  T  T  T  T  T  T  T  T  T  T  S  S  S  S  S  S  S  S  S  S 
--------------------------------------------------------------------------------| 
--------------------------------------------------------------------------------| 
--------------------------------------------------------------------------------| 
--0--0--0--0--0--0--0--0--0--0--0--0--0--0--0--0--0--0--0--0--0--0--0--0--0--0--| 
--0--0--0--0--0--0--0--0--0--0--0--0--0--0--0--0--0--0--0--0--0--0--0--0--0--0--| 
--0--0--0--0--0--0--0--0--0--0--0--0--0--0--0--0--0--0--0--0--0--0--0--0--0--0--| 


  PM PM PM PM PM PM PM    PM 
  |--3--|  |--3--|                 |--3--|  |--3--| 
  E  E  E  E  E  E  E  E  E  E     E  E  E  E  E  E  E  E   Q 
--------------------------------|--------------------------------| 
--------------------------------|--------------------------------| 
--------------------------------|--------------------------------| 
--------------------------------|--------------------------------| 
--0--0--0--0--0--0--0--L--0--L--|--1--------3-----4--5--L\-------| 
--1--1--1--1--1--1--1--L--1--L--|-----2--3-----3-----------------| 


   S  S  S  S  S  S  S  S  S  S  S  S  S  S  S  S 
--------------------------------------------------| 
--------------------------------------------------| 
--10-10-10-10-10-10-10-10-10-10-10-10-12-12-12-12-| 
---x--x--x--x--x--x--x--x--x--x--x--x--x--x--x--x-| 
---8--8--8--8--8--8--8--8--8--8--8--8-10-10-10-10-| 
--------------------------------------------------| 


  S S S S S S S S S S S S S S S S 
----------------------------------| 
----------------------------------| 
--9-9-9-9-9-9-9-9-5-5-5-5-5-5-5-5-| 
--x-x-x-x-x-x-x-x-x-x-x-x-x-x-x-x-| 
--7-7-7-7-7-7-7-7-3-3-3-3-3-3-3-3-| 
----------------------------------| 


   S  S  S  S  S  S  S  S  S  S  S  S  S  S  S  S 
--------------------------------------------------| 
--------------------------------------------------| 
--10-10-10-10-10-10-10-10-10-10-10-10-12-12-12-12-| 
---x--x--x--x--x--x--x--x--x--x--x--x--x--x--x--x-| 
---8--8--8--8--8--8--8--8--8--8--8--8-10-10-10-10-| 
--------------------------------------------------| 


  S S S S S S S S S S S S  S  S  S  S 
--------------------------------------| 
--------------------------------------| 
--9-9-9-9-9-9-9-9-9-9-9-9-10-10-10-10-| 
--x-x-x-x-x-x-x-x-x-x-x-x--x--x--x--x-| 
--7-7-7-7-7-7-7-7-7-7-7-7--8--8--8--8-| 
--------------------------------------| 


   S  S  S  S  S  S  S  S S S S S S S S S 
------------------------------------------| 
------------------------------------------| 
--14-14-14-14-14-14-14-14-9-9-9-9-9-9-9-9-| 
---x--x--x--x--x--x--x--x-x-x-x-x-x-x-x-x-| 
--12-12-12-12-12-12-12-12-7-7-7-7-7-7-7-7-| 
------------------------------------------| 


   S  S  S  S  S  S  S  S S S S S S S S S 
------------------------------------------| 
------------------------------------------| 
--10-10-10-10-10-10-10-10-3-3-3-3-3-3-3-3-| 
---x--x--x--x--x--x--x--x-x-x-x-x-x-x-x-x-| 
---8--8--8--8--8--8--8--8-1-1-1-1-1-1-1-1-| 
------------------------------------------| 


   S  S  S  S  S  S  S  S  S  S  S  S  S  S  S  S 
--------------------------------------------------| 
--------------------------------------------------| 
--10-10-10-10-10-10-10-10-12-12-12-12-10-10-10-10-| 
---x--x--x--x--x--x--x--x--x--x--x--x--x--x--x--x-| 
---8--8--8--8--8--8--8--8-10-10-10-10--8--8--8--8-| 
--------------------------------------------------| 


  S S S S S S S S S S S S S S S S 
----------------------------------| 
----------------------------------| 
--9-9-9-9-9-9-9-9-2-0-------------| 
--x-x-x-x-x-x-x-x-----3-2-3-2-----| 
--7-7-7-7-7-7-7-7-------------5-3-| 
----------------------------------| 


   S  S  S  S  S  S  S  S  S  S  S  S  S  S  S  S 
--------------------------------------------------| 
--------------------------------------------------| 
--10-10-10-10-10-10-10-10-10-10-10-10-12-12-12-12-| 
---x--x--x--x--x--x--x--x--x--x--x--x--x--x--x--x-| 
---8--8--8--8--8--8--8--8--8--8--8--8-10-10-10-10-| 
--------------------------------------------------| 


                    PM PM   PM PM   PM PM   PM PM 
  S S S S S S S S S T  T  S T  T  S T  T  S T  T 
--------------------------------------------------| 
--------------------------------------------------| 
--9-9-9-9-9-9-9-9-5-------5-------5-------5-------| 
--x-x-x-x-x-x-x-x-5-------5-------5-------5-------| 
--7-7-7-7-7-7-7-7-3-3--3--3-3--3--3-3--3--3-3--3--| 
--------------------------------------------------| 


   S  S  S  S  S  S  S  S  S  S  S  S  S  S  S  S 
--------------------------------------------------| 
--------------------------------------------------| 
--10-10-10-10-10-10-10-10-10-10-10-10-12-12-12-12-| 
---x--x--x--x--x--x--x--x--x--x--x--x--x--x--x--x-| 
---8--8--8--8--8--8--8--8--8--8--8--8-10-10-10-10-| 
--------------------------------------------------| 


                    PM PM   PM PM   PM PM   PM PM 
  S S S S S S S S S T  T  S T  T  S T  T  S T  T 
--------------------------------------------------| 
--------------------------------------------------| 
--9-9-9-9-9-9-9-9-5-------5-------5-------5-------| 
--x-x-x-x-x-x-x-x-5-------5-------5-------5-------| 
--7-7-7-7-7-7-7-7-3-3--3--3-3--3--3-3--3--3-3--3--| 
--------------------------------------------------| 


   S  S  S  S  S  S  S  S S S S S S S S S 
------------------------------------------| 
------------------------------------------| 
--14-14-14-14-14-14-14-14-9-9-9-9-9-9-9-9-| 
---x--x--x--x--x--x--x--x-x-x-x-x-x-x-x-x-| 
--12-12-12-12-12-12-12-12-7-7-7-7-7-7-7-7-| 
------------------------------------------| 


   S  S  S  S  S  S  S  S S S S S S S S S 
------------------------------------------| 
------------------------------------------| 
--10-10-10-10-10-10-10-10-3-3-3-3-3-3-3-3-| 
---x--x--x--x--x--x--x--x-x-x-x-x-x-x-x-x-| 
---8--8--8--8--8--8--8--8-1-1-1-1-1-1-1-1-| 
------------------------------------------| 


   S  S  S  S  S  S  S  S  S  S  S  S  S  S  S  S 
--------------------------------------------------| 
--------------------------------------------------| 
--10-10-10-10-10-10-10-10-12-12-12-12-10-10-10-10-| 
---x--x--x--x--x--x--x--x--x--x--x--x--x--x--x--x-| 
---8--8--8--8--8--8--8--8-10-10-10-10--8--8--8--8-| 
--------------------------------------------------| 


                    PM PM   PM PM   PM PM   PM PM 
  S S S S S S S S S T  T  S T  T  S T  T  S T  T 
--------------------------------------------------| 
--------------------------------------------------| 
--9-9-9-9-9-9-9-9-5-------5-------5-------5-------| 
--x-x-x-x-x-x-x-x-5-------5-------5-------5-------| 
--7-7-7-7-7-7-7-7-3-3--3--3-3--3--3-3--3--3-3--3--| 
--------------------------------------------------| 


  S S S S S S S S S S S S S S S S    S S S S S S S S S S S S S S S S 
----------------------------------|----------------------------------| 
----------------------------------|----------------------------------| 
----------------------------------|--5-5-5-5-5-5-5-5-5-5-5-5-5-5-5-5-| 
--0-0-0-0-0-0-0-0-0-0-0-0-0-0-0-0-|--5-5-5-5-5-5-5-5-5-5-5-5-5-5-5-5-| 
--0-0-0-0-0-0-0-0-0-0-0-0-0-0-0-0-|--3-3-3-3-3-3-3-3-3-3-3-3-3-3-3-3-| 
--0-0-0-0-0-0-0-0-0-0-0-0-0-0-0-0-|----------------------------------| 


  S S S S S S S S S S S S S S S S    S S S S S S S S S S S S S S S S 
----------------------------------|----------------------------------| 
----------------------------------|----------------------------------| 
----------------------------------|--5-5-5-5-5-5-5-5-5-5-5-5-5-5-5-5-| 
--0-0-0-0-0-0-0-0-0-0-0-0-0-0-0-0-|--5-5-5-5-5-5-5-5-5-5-5-5-5-5-5-5-| 
--0-0-0-0-0-0-0-0-0-0-0-0-0-0-0-0-|--3-3-3-3-3-3-3-3-3-3-3-3-3-3-3-3-| 
--0-0-0-0-0-0-0-0-0-0-0-0-0-0-0-0-|----------------------------------| 


   S  S  S  S  S  S  S  S S S S S S S S S    S S S S S S S S S S S S S S S S 
------------------------------------------|----------------------------------| 
------------------------------------------|----------------------------------| 
--10-10-10-10-10-10-10-10-5-5-5-5-5-5-5-5-|--7-7-7-7-7-7-7-7-3-3-3-3-3-3-3-3-| 
--10-10-10-10-10-10-10-10-5-5-5-5-5-5-5-5-|--7-7-7-7-7-7-7-7-3-3-3-3-3-3-3-3-| 
---8--8--8--8--8--8--8--8-3-3-3-3-3-3-3-3-|--5-5-5-5-5-5-5-5-1-1-1-1-1-1-1-1-| 
------------------------------------------|----------------------------------| 


  S S S S S S S S S S S S S S S S    S S S S S S S S S S S S S S S S 
----------------------------------|----------------------------------| 
----------------------------------|----------------------------------| 
----------------------------------|--5-5-5-5-5-5-5-5-5-5-5-5-5-5-5-5-| 
--0-0-0-0-0-0-0-0-0-0-0-0-0-0-0-0-|--5-5-5-5-5-5-5-5-5-5-5-5-5-5-5-5-| 
--0-0-0-0-0-0-0-0-0-0-0-0-0-0-0-0-|--3-3-3-3-3-3-3-3-3-3-3-3-3-3-3-3-| 
--0-0-0-0-0-0-0-0-0-0-0-0-0-0-0-0-|----------------------------------| 


  S S S S S S S S S S S S S S S S    S S S S S S S S S S S S S S S S 
----------------------------------|----------------------------------|| 
----------------------------------|----------------------------------|| 
----------------------------------|--5-5-5-5-5-5-5-5-5-5-5-5-5-5-5-5-|| 
--0-0-0-0-0-0-0-0-0-0-0-0-0-0-0-0-|--5-5-5-5-5-5-5-5-5-5-5-5-5-5-5-5-|| 
--0-0-0-0-0-0-0-0-0-0-0-0-0-0-0-0-|--3-3-3-3-3-3-3-3-3-3-3-3-3-3-3-3-|| 
--0-0-0-0-0-0-0-0-0-0-0-0-0-0-0-0-|----------------------------------|| 


Guitar 2 

                                                      H        Q    E  E 
D||-------|-------|-------|-------|-------|-------|-----------------------| 
A||-------|-------|-------|-------|-------|-------|-----------------------| 
F||-------|-------|-------|-------|-------|-------|--10--------3----7--7--| 
C||-------|-------|-------|-------|-------|-------|--10--------3----7--7--| 
G||-------|-------|-------|-------|-------|-------|---8--------1----5--5--| 
C||-------|-------|-------|-------|-------|-------|-----------------------| 


  H          H             S  S  S  S  S  S  S  S  S  S  S  S  S  S  S  S 
-----------------------|--13-10-------------------------------------------| 
-----------<>5b--------|--------11-10-------------------------------------| 
--5--------------------|--------------10----------------------------------| 
--5--------------------|-----------------12----------12-14-15-14-12----12-| 
--3--------------------|--------------------13-12-13----------------13----| 
-----------------------|--------------------------------------------------| 


   S  S  S S  S S S S S S S S E  E      S S S S S S S S S S S S S S S S 
-------------------------------------|--5---------------6-3-------------| 
--13-10-11-8-10-6-8-5-6--------------|----6-----------------5-3---------| 
------------------------2-5-2--------|------7-5-----------------3-0-----| 
------------------------------5--L\--|----------7-------------------2-0-| 
-------------------------------------|------------8-7-5-----------------| 
-------------------------------------|----------------------------------| 


                                         T 
   S  S  S S  S S S S  T  T  T  T  T  T  T  T  T  T  T  T  S S 
----------------------------------13-17-22-17-13---------------| 
-------------------------------15----------------15------------| 
--14-10-12-9-10-7-9-5-------14----------------------14---------| 
-------------------------15----------------------------15------| 
----------------------17----------------------------------17---| 
---------------------------------------------------------------| 


    PM PM PM PM PM PM PM PM PM PM PM PM PM PM PM PM PM PM PM PM PM PM PM PM PM P 
  S T  T  T  T  T  T  T  T  T  T  T  T  T  T  T  T  T  T  T  T  T  T  T  T  T  T 
---------------------------------------------------------------------------------| 
---------------------------------------------------------------------------------| 
--7------------------------------------------------------------------------------| 
--7------------------------------------------------------------------------------| 
--5-5--5--5--5--5--5--5--5--5--5--5--5--5--5--5--5--5--5--5--5--5--5--5--5--5--5-| 
---------------------------------------------------------------------------------| 


    PM PM PM PM PM PM PM PM PM PM PM PM PM PM PM PM PM PM PM PM PM PM PM PM PM P 
  S T  T  T  T  T  T  T  T  T  T  T  T  T  T  T  T  T  T  T  T  T  T  T  T  T  T 
---------------------------------------------------------------------------------| 
---------------------------------------------------------------------------------| 
--5------------------------------------------------------------------------------| 
--5------------------------------------------------------------------------------| 
--3-3--3--3--3--3--3--3--3--3--3--3--3--3--3--3--3--3--3--3--3--3--3--3--3--3--3-| 
---------------------------------------------------------------------------------| 


     PM PM PM PM PM PM PM PM PM PM PM PM PM PM   PM PM PM PM PM PM   PM PM PM PM 
   S T  T  T  T  T  T  T  T  T  T  T  T  T  T  S T  T  T  T  T  T  S T  T  T  T 
--------------------------------------------------------------------------------| 
--------------------------------------------------------------------------------| 
--10-------------------------------------------3-------------------7------------| 
--10-------------------------------------------3-------------------7------------| 
---8-8--8--8--8--8--8--8--8--8--8--8--8--8--8--1-1--1--1--1--1--1--5-5--5--5--5-| 
--------------------------------------------------------------------------------| 


    PM PM PM PM PM PM PM PM PM PM PM PM PM PM 
  S T  T  T  T  T  T  T  T  T  T  T  T  T  T    H 
----------------------------------------------------------| 
----------------------------------------------<>7b--------| 
--5-------------------------------------------------------| 
--5-------------------------------------------------------| 
--3-3--3--3--3--3--3--3--3--3--3--3--3--3--3--------------| 
----------------------------------------------------------| 


    PM PM PM PM PM PM PM PM PM PM PM PM PM PM PM PM PM PM PM PM PM PM PM PM PM P 
  S T  T  T  T  T  T  T  T  T  T  T  T  T  T  T  T  T  T  T  T  T  T  T  T  T  T 
---------------------------------------------------------------------------------| 
---------------------------------------------------------------------------------| 
---------------------------------------------------------------------------------| 
---------------------------------------------------------------------------------| 
--8-8--8--8--8--8--8--8--8--8--8--8--8--8--8--8--8--8--8--8--8--8--8--8--8--8--8-| 
---------------------------------------------------------------------------------| 


  PM PM PM PM PM PM PM PM PM PM PM PM PM PM PM PM PM PM PM PM PM PM PM PM  PM PM 
  T  T  T  T  T  T  T  T  T  T  T  T  T  T  T  T  T  T  T  T  T  T  T  T   T  T 
--------------------------------------------------------------------------------| 
--------------------------------------------------------------------------------| 
--------------------------------------------------------------------------------| 
--------------------------------------------------------------------------------| 
--7--7--7--7--7--7--7--7--7--7--7--7--7--7--7--7--3--3--3--5--5--5--7--7--10-10-| 
--------------------------------------------------------------------------------| 


   PM PM PM PM PM PM PM PM PM PM PM PM PM PM PM PM PM PM PM PM PM PM PM PM PM PM 
   T  T  T  T  T  T  T  T  T  T  T  T  T  T  T  T  T  T  T  T  T  T  T  T  T  T 
--------------------------------------------------------------------------------| 
--------------------------------------------------------------------------------| 
--------------------------------------------------------------------------------| 
--------------------------------------------------------------------------------| 
--12-12-12-12-12-12-12-12-12-12-12-12-12-12-12-12-13-13-13-13-13-13-13-13-12-12-| 
--------------------------------------------------------------------------------| 


   PM PM PM PM PM PM PM PM PM PM PM PMPM PM PM PM PM PM PM PM PM PM PM PM PM PM 
   T  T  T  T  T  T  T  T  T  T  T  T T  T  T  T  T  T  T  T  T  T  T  T  T  T 
--------------------------------------------------------------------------------| 
--------------------------------------------------------------------------------| 
--------------------------------------------------------------------------------| 
--------------------------------------------------------------------------------| 
--10-10-10-10-10-10-10-10-10-10-10-10-5--5--5--5--3--3--3--3--3--3--3--3--3--3--| 
--------------------------------------------------------------------------------| 


   >        >        >        > 
   S S S S  S S S S  S S S S  S S S S 
--------------------------------------| 
--10-------10-------10-------11-------| 
-----7---7----7---7----7---7----7---7-| 
-------7--------7--------7--------7---| 
--------------------------------------| 
--------------------------------------| 


   >           >          >          > 
   S  S  S  S  S  S  S  S S  S  S  S S  S  S  S 
------------------------------------------------| 
------------------------------------------------| 
--12----------12----------9----------9----------| 
-----10----10----10----10---10----10---10----10-| 
--------10----------10---------10---------10----| 
------------------------------------------------| 


   >        >       >       >    >  > 
   S S S S  S S S S S S S S S S  S  S 
--------------------8-------8---10-12-| 
--10-------10-------------------------| 
-----7---7----7---7---7---7-----------| 
-------7--------7-------7-----7-------| 
--------------------------------------| 
--------------------------------------| 


   >           >           > 
   S  S  S  S  S  S  S  S  S S S S S S S S     E   E   E   E   E   E   E   E 
--13----------13----------13---------------|----------------------------------| 
-----10----10----10----10------------------|--10--10--10--10--10--10--11--11--| 
--------10----------10---------------------|---x---x---x---x---x---x---x---x--| 
-------------------------------------------|---7---7---7---7---7---7---8---8--| 
-------------------------------------------|----------------------------------| 
-------------------------------------------|----------------------------------| 


  E  E  E  E  E  E  E  E      E   E   E   E   E   E   E   E 
--------------------------|----------------------------------| 
--8--8--8--8--5--5--5--5--|--10--10--10--10--10--10--11--11--| 
--x--x--x--x--x--x--x--x--|---x---x---x---x---x---x---x---x--| 
--5--5--5--5--2--2--2--2--|---7---7---7---7---7---7---8---8--| 
--------------------------|----------------------------------| 
--------------------------|----------------------------------| 


  E  E  E  E  S S E   E   E      E   E   E   E  E  E  E  E 
-----------------------------|------------------------------| 
--8--8--8--8--8-8-8--10--10--|--13--13--13--13--8--8--8--8--| 
--x--x--x--x--x-x-x---x---x--|---x---x---x---x--x--x--x--x--| 
--5--5--5--5--5-5-5---7---7--|--10--10--10--10--5--5--5--5--| 
-----------------------------|------------------------------| 
-----------------------------|------------------------------| 


   E   E   E   E  E  E  E  E      E   E   E   E   E   E   E   E 
------------------------------|----------------------------------| 
--10--10--10--10--8--8--8--8--|--10--10--10--10--11--11--10--10--| 
---x---x---x---x--x--x--x--x--|---x---x---x---x---x---x---x---x--| 
---7---7---7---7--5--5--5--5--|---7---7---7---7---8---8---7---7--| 
------------------------------|----------------------------------| 
------------------------------|----------------------------------| 


                PM PM   PM PM   PM PM   PM PM      \1/ 
  E  E  E  E  S T  T  S T  T  S T  T  S T  T       H 
----------------------------------------------|-------------| 
--8--8--8--8----------------------------------|-------------| 
--x--x--x--x--5-------5-------5-------5-------|--<>5--------| 
--5--5--5--5--5-------5-------5-------5-------|-------------| 
--------------3-3--3--3-3--3--3-3--3--3-3--3--|-------------| 
----------------------------------------------|-------------| 


    PM PM PM PM PM PM PM PM PM PM PM PM PM PM PM PM PM PM PM PM PM PM PM PM PM P 
  S T  T  T  T  T  T  T  T  T  T  T  T  T  T  T  T  T  T  T  T  T  T  T  T  T  T 
---------------------------------------------------------------------------------| 
---------------------------------------------------------------------------------| 
--7------------------------------------------------------------------------------| 
--7------------------------------------------------------------------------------| 
--5-5--5--5--5--5--5--5--5--5--5--5--5--5--5--5--5--5--5--5--5--5--5--5--5--5--5-| 
---------------------------------------------------------------------------------| 


    PM PM PM PM PM PM PM PM PM PM PM PM PM PM PM PM PM PM PM PM PM PM PM PM PM P 
  S T  T  T  T  T  T  T  T  T  T  T  T  T  T  T  T  T  T  T  T  T  T  T  T  T  T 
---------------------------------------------------------------------------------| 
---------------------------------------------------------------------------------| 
--5------------------------------------------------------------------------------| 
--5------------------------------------------------------------------------------| 
--3-3--3--3--3--3--3--3--3--3--3--3--3--3--3--3--3--3--3--3--3--3--3--3--3--3--3-| 
---------------------------------------------------------------------------------| 


     PM PM PM PM PM PM PM PM PM PM PM PM PM PM   PM PM PM PM PM PM   PM PM PM PM 
   S T  T  T  T  T  T  T  T  T  T  T  T  T  T  S T  T  T  T  T  T  S T  T  T  T 
--------------------------------------------------------------------------------| 
--------------------------------------------------------------------------------| 
--10-------------------------------------------3-------------------7------------| 
--10-------------------------------------------3-------------------7------------| 
---8-8--8--8--8--8--8--8--8--8--8--8--8--8--8--1-1--1--1--1--1--1--5-5--5--5--5-| 
--------------------------------------------------------------------------------| 


    PM PM PM PM PM PM PM PM PM PM PM PM PM PM 
  S T  T  T  T  T  T  T  T  T  T  T  T  T  T  Q      Q 
-----------------------------------------------------------| 
-----------------------------------------------------------| 
--5-------------------------------------------5------------| 
--5-------------------------------------------5----/12\----| 
--3-3--3--3--3--3--3--3--3--3--3--3--3--3--3--3----/12\----| 
---------------------------------------------------/12\----| 


    PM PM PM PM PM PM PM PM PM PM PM PM PM PM PM PM PM PM PM PM PM PM PM PM PM P 
  S T  T  T  T  T  T  T  T  T  T  T  T  T  T  T  T  T  T  T  T  T  T  T  T  T  T 
---------------------------------------------------------------------------------| 
---------------------------------------------------------------------------------| 
---------------------------------------------------------------------------------| 
---------------------------------------------------------------------------------| 
--8-8--8--8--8--8--8--8--8--8--8--8--8--8--8--8--8--8--8--8--8--8--8--8--8--8--8-| 
---------------------------------------------------------------------------------| 


  PM PM PM PM PM PM PM PM PM PM PM PM PM PM PM PM PM PM PM PM PM PM PM PM  PM PM 
  T  T  T  T  T  T  T  T  T  T  T  T  T  T  T  T  T  T  T  T  T  T  T  T   T  T 
--------------------------------------------------------------------------------| 
--------------------------------------------------------------------------------| 
--------------------------------------------------------------------------------| 
--------------------------------------------------------------------------------| 
--7--7--7--7--7--7--7--7--7--7--7--7--7--7--7--7--3--3--3--5--5--5--7--7--10-10-| 
--------------------------------------------------------------------------------| 


   PM PM PM PM PM PM PM PM PM PM PM PM PM PM PM PM PM PM PM PM PM PM PM PM PM PM 
   T  T  T  T  T  T  T  T  T  T  T  T  T  T  T  T  T  T  T  T  T  T  T  T  T  T 
--------------------------------------------------------------------------------| 
--------------------------------------------------------------------------------| 
--------------------------------------------------------------------------------| 
--------------------------------------------------------------------------------| 
--12-12-12-12-12-12-12-12-12-12-12-12-12-12-12-12-13-13-13-13-13-13-13-13-12-12-| 
--------------------------------------------------------------------------------| 


   PM PM PM PM PM PM PM PM PM PM PM PMPM PM PM PM PM PM PM PM PM PM PM PM PM PM 
   T  T  T  T  T  T  T  T  T  T  T  T T  T  T  T  T  T  T  T  T  T  T  T  T  T 
--------------------------------------------------------------------------------| 
--------------------------------------------------------------------------------| 
--------------------------------------------------------------------------------| 
--------------------------------------------------------------------------------| 
--10-10-10-10-10-10-10-10-10-10-10-10-5--5--5--5--3--3--3--3--3--3--3--3--3--3--| 
--------------------------------------------------------------------------------| 


   >        >        >        > 
   S S S S  S S S S  S S S S  S S S S 
--------------------------------------| 
--10-------10-------10-------11-------| 
-----7---7----7---7----7---7----7---7-| 
-------7--------7--------7--------7---| 
--------------------------------------| 
--------------------------------------| 


   >           >          >          > 
   S  S  S  S  S  S  S  S S  S  S  S S  S  S  S 
------------------------------------------------| 
------------------------------------------------| 
--12----------12----------9----------9----------| 
-----10----10----10----10---10----10---10----10-| 
--------10----------10---------10---------10----| 
------------------------------------------------| 


   >        >       >       >    >  >     >           > 
   S S S S  S S S S S S S S S S  S  S     S  S  S  S  S  S  S  S    H 
--------------------8-------8---10-12-|--13----------13--L--L--L-<>13b--------| 
--10-------10-------------------------|-----10----10----10--L-10--------------| 
-----7---7----7---7---7---7-----------|--------10----------10--L--------------| 
-------7--------7-------7-----7-------|---------------------------------------| 
--------------------------------------|---------------------------------------| 
--------------------------------------|---------------------------------------| 


   E   E   E   E   E   E   E   E     E  E  E  E  E  E  E  E 
----------------------------------|--------------------------| 
--10--10--10--10--10--10--11--11--|--8--8--8--8--5--5--5--5--| 
---x---x---x---x---x---x---x---x--|--x--x--x--x--x--x--x--x--| 
---7---7---7---7---7---7---8---8--|--5--5--5--5--2--2--2--2--| 
----------------------------------|--------------------------| 
----------------------------------|--------------------------| 


   E   E   E   E   E   E   E   E     E  E  E  E  S S E   E   E 
----------------------------------|-----------------------------| 
--10--10--10--10--10--10--11--11--|--8--8--8--8--8-8-8--10--10--| 
---x---x---x---x---x---x---x---x--|--x--x--x--x--x-x-x---x---x--| 
---7---7---7---7---7---7---8---8--|--5--5--5--5--5-5-5---7---7--| 
----------------------------------|-----------------------------| 
----------------------------------|-----------------------------| 


   E   E   E   E  E  E  E  E      E   E   E   E  E  E  E  E 
------------------------------|------------------------------| 
--13--13--13--13--8--8--8--8--|--10--10--10--10--8--8--8--8--| 
---x---x---x---x--x--x--x--x--|---x---x---x---x--x--x--x--x--| 
--10--10--10--10--5--5--5--5--|---7---7---7---7--5--5--5--5--| 
------------------------------|------------------------------| 
------------------------------|------------------------------| 


   E   E   E   E   E   E   E   E 
----------------------------------| 
--10--10--10--10--11--11--10--10--| 
---x---x---x---x---x---x---x---x--| 
---7---7---7---7---8---8---7---7--| 
----------------------------------| 
----------------------------------| 


                PM PM   PM PM   PM PM   PM PM 
  E  E  E  E  S T  T  S T  T  S T  T  S T  T 
----------------------------------------------| 
--8--8--8--8----------------------------------| 
--x--x--x--x--5-------5-------5-------5-------| 
--5--5--5--5--5-------5-------5-------5-------| 
--------------3-3--3--3-3--3--3-3--3--3-3--3--| 
----------------------------------------------| 


   |--3--|  |--3--|  |--3--|  |--3--|  |--3--|  |--3--|  |--3--|  |--3--|  |--3- 
   T  T  T  T  T  T  T  T  T  T  T  T  T  T  T  T  T  T  T  T  T  T  T  T  T  T 
--------------13-17-13----------13-17-13----------------------13-17-22-17-13----| 
-----------15----------15----15----------15----------------15----------------15-| 
--------14----------------14----------------14----------14----------------------| 
-----15----------------------------------------15----15-------------------------| 
--17----------------------------------------------17----------------------------| 
--------------------------------------------------------------------------------| 


  E  E  E  E  E  E  E  E     E  E  E  E  E  E  E  E 
--------------------------|--------------------------| 
--------------------------|--------------------------| 
-----------------------5--|--------------------------| 
--0--------------------5--|--0-----------------------| 
--0--------------------3--|--0-----------------------| 
--0-----------------------|--0-----------------------| 


                                                                           ^  ^ 
   |--3--|  |--3--|  |--3--|  |--3--|  |--3--|  |--3--|  |--3--|  |--3--| 
   T  T  T  T  T  T  T  T  T  T  T  T  T  T  T  T  T  T  T  T  T  T  T  T  T  T 
--------22-18-------------20-17-------------18-15-------------15-12-------22-22-| 
-----20-------20-------18-------18-------17-------17-------13-------13----20-20-| 
--19-------------19-17-------------17-15-------------15-12-------------12-------| 
--------------------------------------------------------------------------------| 
--------------------------------------------------------------------------------| 
--------------------------------------------------------------------------------| 


                PH W 
   Q    Q       E  E   Q 
--15----L\-------------------| 
-----------------------------| 
-----------------------------| 
-----------------------------| 
--------------<>3--L~--L/----| 
-----------------------------| 


  |--3--|  |--3--|  |--3--|  |--3--|        |--3--|  3  3        |--3--|  |--3-- 
  T  T  T  T  T  T  T  T  T  T  T  T  T  T  T  T  T  T  T  T  T  T  T  T  T  T 
---------------------------------------------------------------------------------| 
---------------------------------------------------------------------------------| 
---------------------------------------------------------------------------------| 
----------------------------------------------------------13-15-17-13-15-17-15-1-| 
--8-10-12-10-10-12-13-12-12-13-15-13-13-15-17-15-13-15-17------------------------| 
---------------------------------------------------------------------------------| 


   |--3--|  |--3--|  |--3--|  |--3--|  |--3--|  |--3--|  |--3--|  |--3--|  |--3- 
   T  T  T  T  T  T  T  T  T  T  T  T  T  T  T  T  T  T  T  T  T  T  T  T  T  T 
-----------11-13-15-13-11-------------------13-15-17-15-13-------------------15-| 
--11-13-15----------------15-13-11-13-15-17----------------17-15-13-15-17-18----| 
--------------------------------------------------------------------------------| 
--------------------------------------------------------------------------------| 
--------------------------------------------------------------------------------| 
--------------------------------------------------------------------------------| 


   |--3--|  |--3--|        |--3--|  |--3--|  |--3--|        |--3--|  |--3--|  |- 
   T  T  T  T  T  T  T  T  T  T  T  T  T  T  T  T  T  T  T  T  T  T  T  T  T  T 
--22-20-18----------------22-20-18-20-18-17----------------20-18-17-18-17-15----| 
-----------22-20-18-20-22-------------------20-18-17-18-20-------------------18-| 
--------------------------------------------------------------------------------| 
--------------------------------------------------------------------------------| 
--------------------------------------------------------------------------------| 
--------------------------------------------------------------------------------| 


   |--3-| |--3--|  |--3-|  |--3-|  |--3--|  |--3--|  |--3--|  |--3--|  |--3--| 
   T T  T T  T  T  T T  T  T T  T  T  T  T  T  T  T  T  T  T  T  T  T  T  T  T 
--12-8--------------------12-8----13-10----------------------13-10----15-12------| 
-------10--------------10------10-------11----------------11-------11-------13---| 
----------9----------9---------------------10----------10----------------------1-| 
------------10----10--------------------------12----12---------------------------| 
---------------12--------------------------------13------------------------------| 
---------------------------------------------------------------------------------| 


   W 
--22----------------|-----------|-----------|-----------| 
--------------------|-----------|-----------|-----------| 
--------------------|-----------|-----------|-----------| 
--------------------|-----------|-----------|-----------| 
--------------------|-----------|-----------|-----------| 
--------------------|-----------|-----------|-----------| 


   E  S  E  S  E   E   S E  S   S   S 
--------------------------------------| 
--------------------------------------| 
--14--L-15--L-17--12--10-9--L-/12-/12-| 
--------------------------------------| 
--------------------------------------| 
--------------------------------------| 


   E  S  T  T  T  T  T  T  T  T  T  T  T  T  T  T  T  T  T  T  Q 
--------------------------------------------------------------------| 
--------------------------------------------------------------------| 
--10--L-14-15-17-15-14-17-15-14-15-14-12----------------------------| 
-----------------------------------------15-14-12-------------------| 
--------------------------------------------------15-14-12----------| 
-----------------------------------------------------------15-10----| 


   S  S  S  S  S  S  S  S  S  S  S  S   Q 
-----------24----24-20----24-20--------------| 
--------------22-------22-------22-----------| 
-----------------------------------19b-17----| 
-----19-22-----------------------------------| 
--19-----------------------------------------| 
---------------------------------------------| 


   |--3--|  |--3--|  |--3--|  |--3--| 
   S  S  S  S  S  S  S  S  S  S  S  S  S  E   Q    S 
--17-13-15-12-13-------------------------------------| 
-----------------13-15-------------------------------| 
-----------------------12-14-------------------------| 
-----------------------------10-12-------------------| 
-----------------------------------10-12-------------| 
-----------------------------------------12--14----L-| 


    T    T    T    T    T    T    T    T    T    T    T    T    T    T    T    T 
---15---15---20---20---22---22---15---15---20---20---22---22---15---15---18---18-| 
--(15)-(15)-(15)-(15)-(15)-(15)-(15)-(15)-(15)-(15)-(15)-(15)-(15)-(15)-(15)-(15-| 
---------------------------------------------------------------------------------| 
---------------------------------------------------------------------------------| 
---------------------------------------------------------------------------------| 
---------------------------------------------------------------------------------| 


    T    T    T    T    T    T    T    T    T    T    T    T    T    T    T    T 
---17---17---22---22---15---15---17---17---18---18---22---22---18---18---17---17-| 
--(15)-(15)-(15)-(15)-(15)-(15)-(15)-(15)-(15)-(15)-(15)-(15)-(15)-(15)-(15)-(15-| 
---------------------------------------------------------------------------------| 
---------------------------------------------------------------------------------| 
---------------------------------------------------------------------------------| 
---------------------------------------------------------------------------------| 


   |--3--|  |--3--|        |--3--|  |--3--|        |--3--|  |--3--|  |--3--|  |- 
   T  T  T  T  T  T  T  T  T  T  T  T  T  T  T  T  T  T  T  T  T  T  T  T  T  T 
--20-22-24-22-20-24-22-20-18-20-22-20-18-22-20-18-17-18-20-18-17-20-------------| 
--------------------------------------------------------------------14-15-17-15-| 
--------------------------------------------------------------------------------| 
--------------------------------------------------------------------------------| 
--------------------------------------------------------------------------------| 
--------------------------------------------------------------------------------| 


                            |--3--|  |--3--|  |--3--|  |--3--|  |--3--|  |--3--| 
   E   S  T  T  E  S  T  T  T  T  T  T  T  T  T  T  T  T  T  T  T  T  T  T  T  T 
------------------------------13----------13-------------------------------------| 
---------------------13-15-17----17-15-13----17-15-13----------------------------| 
--19b--L-19-17-19--L----------------------------------15-14-12-15-14-12-10-12-14-| 
---------------------------------------------------------------------------------| 
---------------------------------------------------------------------------------| 
---------------------------------------------------------------------------------| 


  S S E  E  E  E  E  S S E 
----------------------------| 
----------------------------| 
---------------------5------| 
--L------------------5------| 
---------------------3------| 
----------------------------| 


  PM PM     PM PM     PM PM     PM PM PM     PM PM PM         PM PM PM PM PM PM 
  T  T  T T T  T  T T T  T  T T T  T  T  S T S  T  T  T T T T T  T  T  T  T  T 
--------------------------------------------------------------------------------| 
--------------------------------------------------------------------------------| 
--------------------------------------------------------------------------------| 
--0--0------0--0------0--0------0--0--0------0--0--0----------0--0--0--0--0--0--| 
--0--0------0--0------0--0------0--0--0------0--0--0----------0--0--0--0--0--0--| 
--0--0------0--0------0--0------0--0--0--3-L-0--0--0----------0--0--0--0--0--0--| 


  PM PM     PM PM         PM PM PM PM     PM   PM PM       PM PM PM 
  T  T  T T T  T  T T T T S  T  T  T  S T T  T T  T  T T S S  T  T  T T 
------------------------------------------------------------------------| 
------------------------------------------------------------------------| 
------------------------------------------------------------------------| 
--5--5------5--5----------5--5--5--5--3-L-3----3--3--------3--3--3------| 
--5--5------5--5----------5--5--5--5--3-L-3----3--3------5-3--3--3------| 
--5--5------5--5----------5--5--5--5--3-L-3----3--3--------3--3--3------| 


  PM PM     PM PM     PM PM     PM PM PM     PM PM PM         PM PM PM PM PM PM 
  T  T  T T T  T  T T T  T  T T T  T  T  S T S  T  T  T T T T T  T  T  T  T  T 
--------------------------------------------------------------------------------| 
--------------------------------------------------------------------------------| 
--------------------------------------------------------------------------------| 
--0--0------0--0------0--0------0--0--0------0--0--0----------0--0--0--0--0--0--| 
--0--0------0--0------0--0------0--0--0------0--0--0----------0--0--0--0--0--0--| 
--0--0------0--0------0--0------0--0--0--3-L-0--0--0----------0--0--0--0--0--0--| 


  PM PM     PM PM         PM PM PM PM     PM   PM PM       PM PM PM 
  T  T  T T T  T  T T T T S  T  T  T  S T T  T T  T  T T S S  T  T  T T 
------------------------------------------------------------------------| 
------------------------------------------------------------------------| 
------------------------------------------------------------------------| 
--5--5------5--5----------5--5--5--5--3-L-3----3--3--------3--3--3------| 
--5--5------5--5----------5--5--5--5--3-L-3----3--3------5-3--3--3------| 
--5--5------5--5----------5--5--5--5--3-L-3----3--3--------3--3--3------| 


  PM PM PM PM PM PM PM PM PM PM PM PM PM PM PM PM  PM PM PM PMPM PM PM PM PM PM 
  T  T  T  T  T  T  T  T  T  T  T  T  T  T  T  T   T  T  T  T T  T  T  T  T  T 
--------------------------------------------------------------------------------| 
--------------------------------------------------------------------------------| 
--------------------------------------------------------------------------------| 
--------------------------------------------------------------------------------| 
--------------------------------------------------------------------------------| 
--8--8--8--8--7--7--7--7--5--5--5--5--3--3--3--3--10-10-10-10-8--8--8--8--7--7--| 


                          \1/ 
  |--3--|  |--3--| 
  E  E  E  E  E  E  E     Q    E 
-----------------------<>16-------| 
----------------------------------| 
----------------------------------| 
--3--2--3--5--3--5--7-------------| 
----------------------------------| 
----------------------------------| 


  PM PM PM PM PM PM         PM PM PM PM PM   PM PM PM PM PM   PM PM PM PM PM   P 
  |--3--|  |--3--| 
  S  S  S  S  S  S  S S S S X  X  X  X  T  T X  X  X  X  T  T X  X  X  X  T  T X 
---------------------------------------------------------------------------------| 
---------------------------------------------------------------------------------| 
---------------------------------------------------------------------------------| 
--0--0--0--0--0--0--0------------------------------------------------------------| 
--0--0--0--0--0--0--0------------------------------------------------------------| 
--0--0--0--0--0--0--0-------0--0--0--0--0----0--0--0--0--0----0--0--0--0--0----0-| 


  PM PM PM PM PM PM PM PM PM PM PM PM PM PM PM PM PM PM PM PM PM 
  |----3---|  |--3--|  |--3--|  |--3--|                          |--3--| 
  T  T  S  S  S  S  S  S  S  S  S  S  S  T  T  T  T  T  T  T  T  E  E  E 
--------------------------------------------------------------------------| 
--------------------------------------------------------------------------| 
--------------------------------------------------------------------------| 
--0--0--0--0--0--0--0--0--0--0--0--0--0-----------------------------------| 
--0--0--0--0--0--0--0--0--0--0--0--0--0--------------------------1--------| 
--0--0--0--0--0--0--0--0--0--0--0--0--0--8--8--8--8--7--7--7--7-----2--3--| 


        \1/  PM PM PM PM       PM PM     PM PM   PM 
             |--3--| 
  E     Q    T  T  T  S  E  E  T  T  T T T  T  T T 
-----<>16-------------------------------------------| 
----------------------------------------------------| 
----------------------------------------------------| 
-------------0--0--0--0-----------------------------| 
--3----------0--0--0--0-----------------------------| 
-------------0--0--0--0--------0--0------0--0----0--| 


  PM PM PM                                  \1/ 
  S  S  S  S S S S S S S S E  E   S         W 
------------------------------------|----|-------------------| 
------------------------------------|----|-------------------| 
------------------------------------|----|-------------------| 
------------------------------------|----|-------------------| 
---------------------------5--L\----|----|-------------------| 
--0--0--0----3-2-3-5-3-2-0----------|----|--1----------------| 


  PM PM PM PM PM PM PM PM PM PM PM PM PM PM PM PM PM PM PM PM PM PM PM PM PM PM 
                                                  |--3--|  |--3--|  |--3--|  |-- 
  T  T  T  T  T  T  T  T  T  T  T  T  T  T  T  T  S  S  S  S  S  S  S  S  S  S 
--------------------------------------------------------------------------------| 
--------------------------------------------------------------------------------| 
--------------------------------------------------------------------------------| 
--0--0--0--0--0--0--0--0--0--0--0--0--0--0--0--0--0--0--0--0--0--0--0--0--0--0--| 
--0--0--0--0--0--0--0--0--0--0--0--0--0--0--0--0--0--0--0--0--0--0--0--0--0--0--| 
--0--0--0--0--0--0--0--0--0--0--0--0--0--0--0--0--0--0--0--0--0--0--0--0--0--0--| 


  PM PM PM PM PM PM PM    PM 
  |--3--|  |--3--|                 |--3--|  |--3--| 
  E  E  E  E  E  E  E  E  E  E     E  E  E  E  E  E  E  E   Q 
--------------------------------|--------------------------------| 
--------------------------------|--------------------------------| 
--------------------------------|--------------------------------| 
--------------------------------|--------------------------------| 
--0--0--0--0--0--0--0--L--0--L--|--1--------3-----4--5--L\-------| 
--1--1--1--1--1--1--1--L--1--L--|-----2--3-----3-----------------| 


   S  S  S  S  S  S  S  S  S  S  S  S  S  S  S  S 
--------------------------------------------------| 
--10-10-10-10-10-10-10-10-10-10-10-10-11-11-11-11-| 
---x--x--x--x--x--x--x--x--x--x--x--x--x--x--x--x-| 
---7--7--7--7--7--7--7--7--7--7--7--7--8--8--8--8-| 
--------------------------------------------------| 
--------------------------------------------------| 


  S S S S S S S S S S S S S S S S 
----------------------------------| 
--8-8-8-8-8-8-8-8-5-5-5-5-5-5-5-5-| 
--x-x-x-x-x-x-x-x-x-x-x-x-x-x-x-x-| 
--5-5-5-5-5-5-5-5-2-2-2-2-2-2-2-2-| 
----------------------------------| 
----------------------------------| 


   S  S  S  S  S  S  S  S  S  S  S  S  S  S  S  S 
--------------------------------------------------| 
--10-10-10-10-10-10-10-10-10-10-10-10-11-11-11-11-| 
---x--x--x--x--x--x--x--x--x--x--x--x--x--x--x--x-| 
---7--7--7--7--7--7--7--7--7--7--7--7--8--8--8--8-| 
--------------------------------------------------| 
--------------------------------------------------| 


  S S S S S S S S S S S S  S  S  S  S 
--------------------------------------| 
--8-8-8-8-8-8-8-8-8-8-8-8-10-10-10-10-| 
--x-x-x-x-x-x-x-x-x-x-x-x--x--x--x--x-| 
--5-5-5-5-5-5-5-5-5-5-5-5--7--7--7--7-| 
--------------------------------------| 
--------------------------------------| 


   S  S  S  S  S  S  S  S S S S S S S S S 
------------------------------------------| 
--13-13-13-13-13-13-13-13-8-8-8-8-8-8-8-8-| 
---x--x--x--x--x--x--x--x-x-x-x-x-x-x-x-x-| 
--10-10-10-10-10-10-10-10-5-5-5-5-5-5-5-5-| 
------------------------------------------| 
------------------------------------------| 


   S  S  S  S  S  S  S  S S S S S S S S S 
------------------------------------------| 
--10-10-10-10-10-10-10-10-8-8-8-8-8-8-8-8-| 
---x--x--x--x--x--x--x--x-x-x-x-x-x-x-x-x-| 
---7--7--7--7--7--7--7--7-5-5-5-5-5-5-5-5-| 
------------------------------------------| 
------------------------------------------| 


   S  S  S  S  S  S  S  S  S  S  S  S  S  S  S  S 
--------------------------------------------------| 
--10-10-10-10-10-10-10-10-11-11-11-11-10-10-10-10-| 
---x--x--x--x--x--x--x--x--x--x--x--x--x--x--x--x-| 
---7--7--7--7--7--7--7--7--8--8--8--8--7--7--7--7-| 
--------------------------------------------------| 
--------------------------------------------------| 


  S S S S S S S S S S S S S S S S 
----------------------------------| 
--8-8-8-8-8-8-8-8-----------------| 
--x-x-x-x-x-x-x-x-2-0-------------| 
--5-5-5-5-5-5-5-5-----3-2-3-2-----| 
------------------------------5-3-| 
----------------------------------| 


   S  S  S  S  S  S  S  S  S  S  S  S  S  S  S  S 
--------------------------------------------------| 
--10-10-10-10-10-10-10-10-10-10-10-10-11-11-11-11-| 
---x--x--x--x--x--x--x--x--x--x--x--x--x--x--x--x-| 
---7--7--7--7--7--7--7--7--7--7--7--7--8--8--8--8-| 
--------------------------------------------------| 
--------------------------------------------------| 


                    PM PM   PM PM   PM PM   PM PM 
  S S S S S S S S S T  T  S T  T  S T  T  S T  T 
--------------------------------------------------| 
--8-8-8-8-8-8-8-8---------------------------------| 
--x-x-x-x-x-x-x-x-5-------5-------5-------5-------| 
--5-5-5-5-5-5-5-5-5-------5-------5-------5-------| 
------------------3-3--3--3-3--3--3-3--3--3-3--3--| 
--------------------------------------------------| 


   S  S  S  S  S  S  S  S  S  S  S  S  S  S  S  S 
--------------------------------------------------| 
--10-10-10-10-10-10-10-10-10-10-10-10-11-11-11-11-| 
---x--x--x--x--x--x--x--x--x--x--x--x--x--x--x--x-| 
---7--7--7--7--7--7--7--7--7--7--7--7--8--8--8--8-| 
--------------------------------------------------| 
--------------------------------------------------| 


  S S S S S S S S S S S S  S  S  S  S 
--------------------------------------| 
--8-8-8-8-8-8-8-8-8-8-8-8-10-10-10-10-| 
--x-x-x-x-x-x-x-x-x-x-x-x--x--x--x--x-| 
--5-5-5-5-5-5-5-5-5-5-5-5--7--7--7--7-| 
--------------------------------------| 
--------------------------------------| 


   S  S  S  S  S  S  S  S S S S S S S S S 
------------------------------------------| 
--13-13-13-13-13-13-13-13-8-8-8-8-8-8-8-8-| 
---x--x--x--x--x--x--x--x-x-x-x-x-x-x-x-x-| 
--10-10-10-10-10-10-10-10-5-5-5-5-5-5-5-5-| 
------------------------------------------| 
------------------------------------------| 


   S  S  S  S  S  S  S  S S S S S S S S S 
------------------------------------------| 
--10-10-10-10-10-10-10-10-8-8-8-8-8-8-8-8-| 
---x--x--x--x--x--x--x--x-x-x-x-x-x-x-x-x-| 
---7--7--7--7--7--7--7--7-5-5-5-5-5-5-5-5-| 
------------------------------------------| 
------------------------------------------| 


   S  S  S  S  S  S  S  S  S  S  S  S  S  S  S  S 
--------------------------------------------------| 
--10-10-10-10-10-10-10-10-11-11-11-11-10-10-10-10-| 
---x--x--x--x--x--x--x--x--x--x--x--x--x--x--x--x-| 
---7--7--7--7--7--7--7--7--8--8--8--8--7--7--7--7-| 
--------------------------------------------------| 
--------------------------------------------------| 


                    PM PM   PM PM   PM PM   PM PM 
  S S S S S S S S S T  T  S T  T  S T  T  S T  T 
--------------------------------------------------| 
--8-8-8-8-8-8-8-8---------------------------------| 
--x-x-x-x-x-x-x-x-5-------5-------5-------5-------| 
--5-5-5-5-5-5-5-5-5-------5-------5-------5-------| 
------------------3-3--3--3-3--3--3-3--3--3-3--3--| 
--------------------------------------------------| 


   S  S  S  S  S  S  S  S  S  S  S  S  S  S  S  S 
--13-10-------------------------------------------| 
--------11-10-------------------------------------| 
--------------10----------------------------------| 
-----------------12----------12-14-15-14-12----12-| 
--------------------13-12-13----------------13----| 
--------------------------------------------------| 


   S  S  S S  S S S S S S S S E  E 
-------------------------------------| 
--13-10-11-8-10-6-8-5-6--------------| 
------------------------2-5-2--------| 
------------------------------5--L\--| 
-------------------------------------| 
-------------------------------------| 


   S  S  S  S  S  S  S  S  S  S  S  S  S  S  S  S 
--13-10-------------------------------------------| 
--------11-10-------------------------------------| 
--------------10----------------------------------| 
-----------------12----------12-14-15-14-12----12-| 
--------------------13-12-13----------------13----| 
--------------------------------------------------| 


   S  S  S S  S S S S S S S S E  E      S S S S S S S S S S S S S S S S 
-------------------------------------|--5---------------6-3-------------| 
--13-10-11-8-10-6-8-5-6--------------|----6-----------------5-3---------| 
------------------------2-5-2--------|------7-5-----------------3-0-----| 
------------------------------5--L\--|----------7-------------------2-0-| 
-------------------------------------|------------8-7-5-----------------| 
-------------------------------------|----------------------------------| 


   S  S  S S  S S S S S S S S  Q 
------------------------------------| 
------------------------------------| 
--14-10-12-9-10-7-9-5-7-3-5-2b-2----| 
------------------------------------| 
------------------------------------| 
------------------------------------| 


   S  S  S  S  S  S  S  S  S  S  S  S  S  S  S  S 
--13-10-------------------------------------------| 
--------11-10-------------------------------------| 
--------------10----------------------------------| 
-----------------12----------12-14-15-14-12----12-| 
--------------------13-12-13----------------13----| 
--------------------------------------------------| 


   S  S  S S  S S S S S S S S E  E 
-------------------------------------| 
--13-10-11-8-10-6-8-5-6--------------| 
------------------------2-5-2--------| 
------------------------------5--L\--| 
-------------------------------------| 
-------------------------------------| 


   S  S  S  S  S  S  S  S  S  S  S  S  S  S  S  S 
--13-10-------------------------------------------| 
--------11-10-------------------------------------| 
--------------10----------------------------------| 
-----------------12----------12-14-15-14-12----12-| 
--------------------13-12-13----------------13----| 
--------------------------------------------------| 


   S  S  S S  S S S S S S S S E  E 
-------------------------------------|| 
--13-10-11-8-10-6-8-5-6--------------|| 
------------------------2-5-2--------|| 
------------------------------5--L\--|| 
-------------------------------------|| 
-------------------------------------|| 


Guitar 3 

(00:23) 

   S  S  S  S  S  S  S  S  S  S  S  S  S  S  S  S 
--17-13-------------------------------------------| 
--------15-13-------------------------------------| 
--------------14----------------------------------| 
-----------------15----------15-17-19-17-15----15-| 
--------------------17-15-17----------------17----| 
--------------------------------------------------| 


   S S  S S S S S S S S S S E  E 
--12-8-10-6-8-5-6-3-5--------------| 
-----------------------------------| 
-----------------------------------| 
----------------------3-7-3--------| 
----------------------------7--L\--| 
-----------------------------------| 


   S  S  S  S  S  S  S  S  S  S  S  S  S  S  S  S 
--20----------------------22-18-------------------| 
-----22-------------------------17-15-------------| 
--------22-21-------------------------19-15-------| 
--------------22----------------------------14-12-| 
-----------------24-22-20-------------------------| 
--------------------------------------------------| 


                          \1/ 
   S  S  S  S  S  S  S S  Q    E  E 
--17-13-15-12-13-10-12-8-10----L-----|-------|-------|-------|-------|-------| 
-------------------------------------|-------|-------|-------|-------|-------| 
-------------------------------------|-------|-------|-------|-------|-------| 
-------------------------------------|-------|-------|-------|-------|-------| 
-------------------------------------|-------|-------|-------|-------|-------| 
-------------------------------------|-------|-------|-------|-------|-------| 


(01:41) 


  H        Q      Q 
------------------------| 
------------------------| 
------------------------| 
----------------/12\----| 
------------------------| 
------------------------| 


    PM PM PM PM PM PM PM PM PM PM PM PM PM PM PM PM PM PM PM PM PM PM PM PM PM P 
  S T  T  T  T  T  T  T  T  T  T  T  T  T  T  T  T  T  T  T  T  T  T  T  T  T  T 
---------------------------------------------------------------------------------| 
---------------------------------------------------------------------------------| 
---------------------------------------------------------------------------------| 
--7-7--7--7--7--7--7--7--7--7--7--7--7--7--7--7--7--7--7--7--7--7--7--7--7--7--7-| 
---------------------------------------------------------------------------------| 
---------------------------------------------------------------------------------| 


  PM PM PM PM PM PM PM PM PM PM PM PM PM PM PM PM PM PM PM PM PM PM PM PM PM PM 
  T  T  T  T  T  T  T  T  T  T  T  T  T  T  T  T  T  T  T  T  T  T  T  T  T  T 
--------------------------------------------------------------------------------| 
--------------------------------------------------------------------------------| 
--------------------------------------------------------------------------------| 
--5--5--5--5--5--5--5--5--5--5--5--5--5--5--5--5--2--2--2--3--3--3--5--5--7--7--| 
--------------------------------------------------------------------------------| 
--------------------------------------------------------------------------------| 


   PM PM PM PM PM PM PM PM PM PM PM PM PM PM PM PM PM PM PM PM PM PM PM PM PM PM 
   T  T  T  T  T  T  T  T  T  T  T  T  T  T  T  T  T  T  T  T  T  T  T  T  T  T 
--------------------------------------------------------------------------------| 
--------------------------------------------------------------------------------| 
--------------------------------------------------------------------------------| 
--10-10-10-10-10-10-10-10-10-10-10-10-10-10-10-10-12-12-12-12-12-12-12-12-10-10-| 
--------------------------------------------------------------------------------| 
--------------------------------------------------------------------------------| 


                                                    Pickslide 
   PM PM PM PM PM PM PM PM PM PM PM PM PM PM PM PM 
   T  T  T  T  T  T  T  T  T  T  T  T  T  T  T  T   X         X    X    X    X 
--------------------------------------------------(30)------(29)-(28)-(27)-(26)-| 
--------------------------------------------------(30)------(29)-(28)-(27)-(26)-| 
--------------------------------------------------------------------------------| 
--10-10-10-10-10-10-10-10-10-10-10-10-10-10-10-10-------------------------------| 
--------------------------------------------------------------------------------| 
--------------------------------------------------------------------------------| 


                          Q    Q    Q    Q 
-------|-------|-------|-----------------------|-------|-------|-------|-------| 
-------|-------|-------|-----------------------|-------|-------|-------|-------| 
-------|-------|-------|-----------------------|-------|-------|-------|-------| 
-------|-------|-------|-----------------------|-------|-------|-------|-------| 
-------|-------|-------|-----------------8b----|-------|-------|-------|-------| 
-------|-------|-------|-----------------------|-------|-------|-------|-------| 


(02:50) 

                                  |--3--|  |--3--|  |--3--|  |--3--|  |--3--| 
  T T T T  T  T  T  T  T  T  T  T  T  T  T  T  T  T  T  T  T  T  T  T  T  T  T 
---------------------------------------------------------------------------------| 
---------------------------------------------------------------------------------| 
---------------------------------------------------------------------------------| 
-------------------------------------------------------14-15-17-12-14-15-14-15-1-| 
--8-8-8-8-12-12-12-12-10-10-10-10-14-15-17-15-14-15-17---------------------------| 
---------------------------------------------------------------------------------| 


   |--3--|  |--3--|  |--3--|  |--3--|        |--3--|  |--3--|  |--3--|  |--3--| 
   T  T  T  T  T  T  T  T  T  T  T  T  T  T  T  T  T  T  T  T  T  T  T  T  T  T 
--------------------------------------------------------------------------------| 
--18-17-15-18-17-15-20-18-17-15-17-18-17-15-20-18-17-20-18-17-22-20-18-17-18-20-| 
--------------------------------------------------------------------------------| 
--------------------------------------------------------------------------------| 
--------------------------------------------------------------------------------| 
--------------------------------------------------------------------------------| 


   |--3--|  |--3--|  |--3--|        |--3--|  |--3--|  |--3--|  |--3--|        |- 
   T  T  T  T  T  T  T  T  T  T  T  T  T  T  T  T  T  T  T  T  T  T  T  T  T  T 
--18-17-15-20-18-17-15-17-18-17-15-20-18-17-20-18-17-22-20-18-17-18-20-18-17-22-| 
--------------------------------------------------------------------------------| 
--------------------------------------------------------------------------------| 
--------------------------------------------------------------------------------| 
--------------------------------------------------------------------------------| 
--------------------------------------------------------------------------------| 


   |--3--|  |--3--|  |--3--|  |--3--|  |--3--|  |--3--|  |--3--|  |--3--|  |--3- 
   T  T  T  T  T  T  T  T  T  T  T  T  T  T  T  T  T  T  T  T  T  T  T  T  T  T 
--24-24-24-24-24-24-------------------------------------------------------------| 
--------------------22-22-22-22-22-22-------------------------------------------| 
--------------------------------------21-21-21-21-21-21-------------------------| 
--------------------------------------------------------19-19-19-19-19-19-------| 
--------------------------------------------------------------------------19-19-| 
--------------------------------------------------------------------------------| 


   E  S  E  S  E   E   S  E  S   S   S 
---------------------------------------| 
---------------------------------------| 
---------------------------------------| 
--15--L-17--L-19--14--12-10--L-/14-/14-| 
---------------------------------------| 
---------------------------------------| 


   E  S  T  T  T  T  T  T  T  T  T  T  T  T  T  T  T  T  T  T  Q 
--------------------------------------------------------------------| 
--------13-15-17-15-13-17-15-13-15-13-12----------------------------| 
-----------------------------------------15-14-12-------------------| 
--12--L-------------------------------------------15-14-12----------| 
-----------------------------------------------------------15-------| 
--------------------------------------------------------------14----| 


   S  S  S  S  S  S  S  S  S  S  S  S   Q 
-----------17----17-------17-----------------| 
--------------------17-------17--------------| 
--------------17-------17-------17-----------| 
--------19-------------------------17b-17----| 
-----15--------------------------------------| 
--19-----------------------------------------| 


   |--3--|  |--3--|  |--3--|  |--3--|                   -----   -----   ----- 
   S  S  S  S  S  S  S  S  S  S  S  S  S  E   Q    S 
--20-17-18-15-17-------------------------------------|-------|-------|-------| 
-----------------17-18-------------------------------|-------|-------|-------| 
-----------------------14-17-------------------------|-------|-------|-------| 
-----------------------------14-17-------------------|-------|-------|-------| 
-----------------------------------12-15-------------|-------|-------|-------| 
-----------------------------------------15--17----L-|-------|-------|-------| 


(04:50) 

   S  S  S  S  S  S  S  S  S  S  S  S  S  S  S  S 
--17-13-------------------------------------------| 
--------15-13-------------------------------------| 
--------------14----------------------------------| 
-----------------15----------15-17-19-17-15----15-| 
--------------------17-15-17----------------17----| 
--------------------------------------------------| 


   S S  S S S S S S S S S S E  E 
--12-8-10-6-8-5-6-3-5--------------| 
-----------------------------------| 
-----------------------------------| 
----------------------3-7-3--------| 
----------------------------7--L\--| 
-----------------------------------| 


   S  S  S  S  S  S  S  S  S  S  S  S  S  S  S  S 
--17-13-------------------------------------------| 
--------15-13-------------------------------------| 
--------------14----------------------------------| 
-----------------15----------15-17-19-17-15----15-| 
--------------------17-15-17----------------17----| 
--------------------------------------------------| 


   S S  S S S S S S S S S S E  E 
--12-8-10-6-8-5-6-3-5--------------| 
-----------------------------------| 
-----------------------------------| 
----------------------3-7-3--------| 
----------------------------7--L\--| 
-----------------------------------| 


   S  S  S  S  S  S  S  S  S  S  S  S  S  S  S  S 
--20----------------------22-18-------------------| 
-----22-------------------------17-15-------------| 
--------22-21-------------------------19-15-------| 
--------------22----------------------------14-12-| 
-----------------24-22-20-------------------------| 
--------------------------------------------------| 


   S  S  S  S  S  S  S S  S S S S  Q 
--17-13-15-12-13-10-12-8-10-7-8-5b-5----| 
----------------------------------------| 
----------------------------------------| 
----------------------------------------| 
----------------------------------------| 
----------------------------------------| 


   S  S  S  S  S  S  S  S  S  S  S  S  S  S  S  S 
--17-13-------------------------------------------| 
--------15-13-------------------------------------| 
--------------14----------------------------------| 
-----------------15----------15-17-19-17-15----15-| 
--------------------17-15-17----------------17----| 
--------------------------------------------------| 


   S S  S S S S S S S S S S E  E 
--12-8-10-6-8-5-6-3-5--------------| 
-----------------------------------| 
-----------------------------------| 
----------------------3-7-3--------| 
----------------------------7--L\--| 
-----------------------------------| 


   S  S  S  S  S  S  S  S  S  S  S  S  S  S  S  S 
--17-13-------------------------------------------| 
--------15-13-------------------------------------| 
--------------14----------------------------------| 
-----------------15----------15-17-19-17-15----15-| 
--------------------17-15-17----------------17----| 
--------------------------------------------------| 


   S S  S S S S S S S S S S E  E 
--12-8-10-6-8-5-6-3-5--------------|| 
-----------------------------------|| 
-----------------------------------|| 
----------------------3-7-3--------|| 
----------------------------7--L\--|| 
-----------------------------------|| 


Duration Legend 
--------------- 
W - whole 
H - half 
Q - quarter 
E - 8th 
S - 16th 
T - 32nd 
X - 64th 
. - note dotted 
|-n-|  - n-tuplets 


Tablature Legend 
---------------- 
L - tied note 
x - dead note 
g - grace note 
(n) - ghost note 
> - accentuded note 
NH - natural harmonic 
AH - artificial harmonic 
TH - tapped harmonic 
SH - semi harmonic 
PH - pitch harmonic 
h - hammer on 
p - pull off 
b - bend 
br - bendRelease 
pb - preBend 
pbr - preBendRelease 
brb - bendReleaseBend 
\n/ - tremolo bar dip 
\n - tremolo bar dive 
-/n - tremolo bar Release up 
/n\ - tremolo bar inverted dip 
/n - tremolo bar return 
-\n - tremolo bar Release down 
S - shift slide 
s - legato slide 
/ -  slide into from below or out of upwards 
\ -  slide into from above or out of downwards 
~ - vibrato 
W - wide vibrato 
tr - trill 
TP - tremolo picking 
T - tapping 
S - slap 
P - pop 
< - fade in 
^ - brush up 
v - brush down 
 
		  

See also:

tabs Incubus - 11 A.M. tabs Alesana - Apology tabs Incubus - I Miss You tabs Red Hot Chili Peppers - Otherside (intro) tabs Incubus - Megalomaniac tabs Good Charlotte - Predictable
e-chords

Other versions:

tabs Hoobastank - Born to lead tabs Falling In Reverse - Born To Lead
auto scroll beats size up size down change color hide chords drawings
tab show chords e-chords YouTube Clip e-chords hide all tabs e-chords go to top tab

share