Fairy Tail

Main Theme

Fairy Tail

tabs Expert expert

by  BRUNBLAZKOWSKI

save to print version add songbook text version e-mail correct tuner
chordsukulelecavacokeyboardtabbassdrumsharmonicaflute Guitar Pro
close

there isn't a video lesson for this song

chords

Main Theme

	  		0:00 - 0:15 
 
E|-------------------------| |-------------------------| 
B|-------------------------| |-------------------------| 
G|-7-9-7--------------7----| |-7-9-7--------------10-9-| 
D|-------10-7----7-10---10-| |-------10-7----7-10------| 
A|------------10-----------| |------------10-----------| 
E|-------------------------| |-------------------------| 
 

 
E|-------------------------| |--------------------------------| 
B|-------------------------| |--------------------------------| 
G|-7-9-7--------------7----| |-10-9-7-9-7---------7----10-9-7-| 
D|-------10-7----7-10---10-| |------------10-7-10---10--------| 
A|------------10-----------| |--------------------------------| 
E|-------------------------| |--------------------------------| 
 


0:16 - 0:24 
 
E|-------------------------| 
B|-------------------------| 
G|---------0---2-0---------| 
D|-0-2-3-2---3-----3-2-----| 
A|-------------------------| 
E|-------------------------| 
 


0:25 - 0:39 
 
E|-------------------------| |-------------------------| 
B|-------------------------| |-------------------------| 
G|---2--2---0--------------| |---2-5---5---2-----------| 
D|-0------0---0-3-2-0-2----| |-0-------------3-5---3-2-| 
A|-------------------------| |-----------3-------3-----| 
E|-------------------------| |-------------------------| 
 

0:40 - 0:43 
 
E|-------------------------| 
B|-------------------------| 
G|-------------2-----------| 
D|-0-2-3-2-5-3---5-3-2-----| 
A|-------------------------| 
E|-------------------------| 
 

0:44 - 0:59 
 
E|-------------------------| |-------------------------| 
B|-------------------------| |-------------------------| 
G|---2--2---0--------------| |---2-5---5---2-----------| 
D|-0------0---0-3-2-0-2----| |-0-------------3-5---3-2-| 
A|-------------------------| |-----------3-------3-----| 
E|-------------------------| |-------------------------| 
 

1:00 - 1:15 
 
E|-------------------------| |-------------------------| 
B|-------------------------| |-------------------------| 
G|-7-9-7--------------7----| |-7-9-7--------------10-9-| 
D|-------10-7----7-10---10-| |-------10-7----7-10------| 
A|------------10-----------| |------------10-----------| 
E|-------------------------| |-------------------------| 
 

 
E|-------------------------| |--------------------------------| 
B|-------------------------| |--------------------------------| 
G|-7-9-7--------------7----| |-10-9-7-9-7---------7----10-9---| 
D|-------10-7----7-10---10-| |------------10-7-10---10--------| 
A|------------10-----------| |--------------------------------| 
E|-------------------------| |--------------------------------| 
 

1:15 - 1:47 
 
E|---------------------------------| 
B|---------------------------------| 
G|-------------2-------2-----------| 
D|-0-2-3-2-0-----5-3-5---5-3-2-0-2-| 
A|-----------3---------------------| 
E|---------------------------------| 
 

 
E|-------------------------------------------| 
B|-------------------------------------------| 
G|---------------5-2-------2-----------------| 
D|-0-2-3-2-0---------5-3-5---5-3-2-0-2h3p2---| 
A|-----------3-----------------------------3-| 
E|-------------5-----------------------------| 
 

1:47 - 2:14 
 
E|-------------------------| |-------------------------| 
B|-------------------------| |-------------------------| 
G|-7-9-7--------------7----| |-7-9-7--------------10-9-| 
D|-------10-7----7-10---10-| |-------10-7----7-10------| 
A|------------10-----------| |------------10-----------| 
E|-------------------------| |-------------------------| 
 

E|-------------------------| |--------------------------------| 
B|-------------------------| |--------------------------------| 
G|-7-9-7--------------7----| |-10-9-7-9-7---------7----10-9---| 
D|-------10-7----7-10---10-| |------------10-7-10---10--------| 
A|------------10-----------| |--------------------------------| 
E|-------------------------| |--------------------------------| 
		  

See also:

tabs X Japan - Tears tabs Pillows - One Life tabs Mymp - Especially For You tabs Asian Kung-fu Generation - Riraito tabs Yousei Teikoku - Kuusou Mesorogiwi tabs Abingdon Boys School - Kimi No Uta
e-chords

Other versions:

tabs Fairy Tail - Main Theme tabs Skyrim - Main Theme tabs Lonlonjp - Main Theme Ocarina Of Time
auto scroll beats size up size down change color hide chords drawings
tab show chords e-chords YouTube Clip e-chords hide all tabs e-chords go to top tab

share