Fairy Tail

Fairy Tail Theme

Fairy Tail

tabs Beginner beginner

by  TARIKIKE

save to print version add songbook text version e-mail correct tuner
chordsukulelecavacokeyboardtabbassdrumsharmonicaflute Guitar Pro
close

there isn't a video lesson for this song

chords

Fairy Tail Theme

	  		 
E|---0--------7----|--7--------5-----|----3--------2---| 
B|-----------------|--------------3--|-----------------| 
G|-----------------|-----------------|-----------------| 
D|-----------------|-----------------|----0------------| 
A|-----------------|-----------------|-----------------| 
E|---0-------------|--3--------------|-----------------| 
 

 
E|----0-------2----|--0---------7----|--10----7-----3--| 
B|-----------------|-----------------|-----------------| 
G|-----------------|-----------------|-----------------| 
 

 
D|------------0----|-----------------|--0--------------| 
A|----3------------|-----------------|-----------------| 
E|-----------------|--0--------------|-----------------| 
 

 
E|--5------3---2---|-0-------2-----2-|--0--2--0--------| 
B|-----3-----------|-------0-----3---|-----------3---0-| 
G|-----------------|-----0-----2-----|-----------------| 
D|--0--------------|---2-----0-------|-----------------| 
A|-----------------|-3---------------|-----------------| 
E|-----------------|-----------------|--0--------------| 
 

 
E|------------0----|-0--2--0---------|---------0-------| 
B|-------0--3----3-|----------3---0--|----0--3----3----| 
G|---2-------------|-----------------|-2---------------| 
D|-----------------|-----------------|-----------------| 
A|-----------------|-----------------|-----------------| 
E|---0-------------|-3---------------|-3---------------| 
 

 
E|-0--2-0----------|--------0--------|-3--2-0-2--0-----| 
B|--------3--0-----|---0--3----3-----|-------------3---| 
G|---------------2-|-----------------|-----------------| 
D|-0-------------0-|-----------------|-----------------| 
A|-----------------|-----------------|-3---------------| 
E|-----------------|-----------------|-----------------| 
 

 
E|-------0-----3-2-|-0---2--3---2--0-|--------7----7---| 
B|-----3----3------|-----------------|--3--------------| 
G|-2---------------|-----------------|-----0-----------| 
D|-0---------------|-----------------|-----------------| 
A|-----------------|-----------------|-----------------| 
E|-----------------|-0---0--0--------|--3----------3---| 
 

 
E|-5---3-----------|-5---7---5--3--2-|-0-------2-----2--| 
B|-----------------|-----------------|-------0-----3----| 
G|-----------------|-----------------|-----0-----2------| 
D|-----------------|-0---0---0-------|---2-----0--------| 
A|-----------------|-----------------|-3----------------| 
E|-----------------|-----------------|------------------| 
 

 
E|-0--2--3---2--0--|--------10---7---|---5---3---------| 
B|-----------------|--3--------------|-----------------| 
G|-----------------|-----0-----------|-----------------| 
D|-----------------|-----------------|-----------------| 
A|-----------------|-----------------|-----------------| 
E|-0--0--0---------|--3----------3---|-----------------| 
 

E|--5---7--5--3--2-|--0-----2-3-2----|---0-------------| 
B|-----------------|---------------3-|-----------------| 
G|-----------------|------0----------|-----------------| 
D|--0---0--0-------|----2-------0----|---2-------------| 
A|-----------------|--3--------------|-----------------| 
E|-----------------|-----------------|---0-------------| 
		  

See also:

tabs Mymp - Beauty And Madness tabs Mymp - Tell Me Where It Hurts (ver. 2) tabs Abingdon Boys School - Kimi No Uta tabs Mymp - Tell Me Where It Hurts (ver. 4) tabs New Starting Over - Story Ending tabs X Japan - Endless Rain
e-chords

Other versions:

tabs Fairy Tail - Fairy Tail Theme tabs Misc Cartoons - Fairy Tail Theme
auto scroll beats size up size down change color hide chords drawings
tab show chords e-chords YouTube Clip e-chords hide all tabs e-chords go to top tab

share