Face To Face

home > Face To Face

Walk The Walk Tab

Face To Face

Difficulty: nolevelnolevel

tuner correct add songbook print version text version save to e-mail
chordsukulelecavacokeyboardtabbassdrumsharmonicsflute Guitar Pro
chords

Walk The Walk

  		GUITARRA 2

Intro
e|----------------------------------------------------------------------|
B|-13-------------------------------------------------------------------|
G|-12---fica fazendo sem parar até acabar o solo de bass----------------|
D|-10-------------------------------------------------------------------|
A|----------------------------------------------------------------------|
E|----------------------------------------------------------------------|

Verso
"I Could Be Like You..."
e|-(abafado)---(sem abafado)--------------------------------------------|
B|----------------------------------------------------------------------|
G|-----3----------------------------------------------------------------|
D|-----4-------------3-----------2x-------------------------------------|
A|-------------------3--------------------------------------------------|
E|-------------------1--------------------------------------------------|

"Will I Find Away..."
e|----------------------------------------------------------------------|
B|----------------------------------------------------------------------|
G|-----5-----5----------------------------------------------------------|
D|-5-3-5-5-3-5----------------------------------------------------------|
A|-5-3-3-5-3-3----------------------------------------------------------|
E|-3-1---3-1------------------------------------------------------------|

"Can I Make The See, Can I Make The See..."
e|-------------(abafado)------------------------------------------------|
B|----------------------------------------------------------------------|
G|----------------------------------------------------------------------|
D|-5-3-5-3-5-3--3-3-3-3-------------------------------------------------|
A|-5-3-5-3-5-3--3-3-3-3-------------------------------------------------|
E|-3-1-3-1-3-1--1-1-1-1-------------------------------------------------|

Refrão
e|-------------------------------------|-paradinha----------------------|
B|-------------------------------------|-5------------------------------|
G|-5---3---5---3-----------------------|-3------------------------------|
D|-5-5-3-3-5-5-3-3---------------------|-4------------------------------|
A|-3-5-1-3-3-5-1-3---------------------|--------------------------------|
E|---3---1---3---1---------------------|--------------------------------|

Verso
"I Could Be Like You..."
e|-(abafado)---(sem abafado)--------------------------------------------|
B|----------------------------------------------------------------------|
G|-----3----------------------------------------------------------------|
D|-----4-------------3-----------2x-------------------------------------|
A|-------------------3--------------------------------------------------|
E|-------------------1--------------------------------------------------|

"Will I Find Away..."
e|----------------------------------------------------------------------|
B|----------------------------------------------------------------------|
G|-----5-----5----------------------------------------------------------|
D|-5-3-5-5-3-5----------------------------------------------------------|
A|-5-3-3-5-3-3----------------------------------------------------------|
E|-3-1---3-1------------------------------------------------------------|

"Can I Make The See, Can I Make The See..."
e|-------------(abafado)------------------------------------------------|
B|----------------------------------------------------------------------|
G|----------------------------------------------------------------------|
D|-5-3-5-3-5-3--3-3-3-3-------------------------------------------------|
A|-5-3-5-3-5-3--3-3-3-3-------------------------------------------------|
E|-3-1-3-1-3-1--1-1-1-1-------------------------------------------------|

Refrão
e|----------------------------------------------------------------------|
B|----------------------------------------------------------------------|
G|-5---3---5---3--------------------------------------------------------|
D|-5-5-3-3-5-5-3-3------------------------------------------------------|
A|-3-5-1-3-3-5-1-3------------------------------------------------------|
E|---3---1---3---1------------------------------------------------------|

"Will I Find Away..."
e|----------------------------------------------------------------------|
B|----------------------------------------------------------------------|
G|-----5-----5----------------------------------------------------------|
D|-5-3-5-5-3-5----------------------------------------------------------|
A|-5-3-3-5-3-3----------------------------------------------------------|
E|-3-1---3-1------------------------------------------------------------|

Refrão
e|----------------------------------------------------------------------|
B|----------------------------------------------------------------------|
G|-5---3---5---3--------------------------------------------------------|
D|-5-5-3-3-5-5-3-3------------------------------------------------------|
A|-3-5-1-3-3-5-1-3------------------------------------------------------|
E|---3---1---3---1------------------------------------------------------|

Refrão Final
e|----------------------------------------------------------------------|
B|-13-------------------------------------------------------------------|
G|-12---fica fazendo até acaba a música---------------------------------|
D|-10-------------------------------------------------------------------|
A|----------------------------------------------------------------------|
E|----------------------------------------------------------------------|

GUITARRA 1

Intro
e|-(abafada)------------------------------------------------------------|
B|----------------------------------------------------------------------|
G|--5---3-----5---3---5---3---------------------------------------------|
D|--5-5-3-3---5-5-3-3-5-5-3-3-------------------------------------------|
A|--3-5-1-3---3-5-1-3-3-5-1-3-------------------------------------------|
E|----3---1-----3---1---3---1-------------------------------------------|

O Resto Da Música é igual

Refrão Final
e|----------------------------------------------------------------------|
B|----------------------------------------------------------------------|
G|-5---3---5---3--------------------------------------------------------|
D|-5-5-3-3-5-5-3-3------------------------------------------------------|
A|-3-5-1-3-3-5-1-3------------------------------------------------------|
E|---3---1---3---1------------------------------------------------------|


_______________________________________________________
Contribuição: Maycon André Mantau Espindola([email protected])
	  

Search Paypal
auto scroll beats size up size down change color hide chords drawings
tab show chords e-chords YouTube Clip e-chords hide all tabs e-chords go to top tab