Face To Face

home > Face To Face

Pushover Tab

Face To Face

Difficulty: nolevelnolevel

by robepoiel

tuner correct add songbook print version text version save to e-mail
chordsukulelecavacokeyboardtabbassdrumsharmonicsflute Guitar Pro
chords

Pushover

  		 

 - Intro 
(Just like everybody told you, You're a part of what you've done...) 

Guitar 1 
e|--------------------------------------------------------------------| 
B|--------------------------------------------------------------------| 
G|-------------------------------------------------5-5-5-5-4-4-4-4----| 
D|-2-2-2-2-2-2-2-2-6-6-6-6-6-6-6-6-7-7-7-7-7-7-7-7-5-5-5-5-4-4-4-4----| 
A|-2-2-2-2-2-2-2-2-6-6-6-6-6-6-6-6-7-7-7-7-7-7-7-7-3-3-3-3-2-2-2-2----| 
E|-0-0-0-0-0-0-0-0-4-4-4-4-4-4-4-4-5-5-5-5-5-5-5-5--------------------| 
PM ............................................... 

 - Verse 
(You're back is nearly breaking, Buckles underneath this weight...) 

Guitar 1 
e|--------------------------------------------------------------------| 
B|--------------------------------------------------------------------| 
G|-------------------------------------------------5-5-5-5-4-4-4-4----| 
D|-2-2-2-2-2-2-2-2-6-6-6-6-6-6-6-6-7-7-7-7-7-7-7-7-5-5-5-5-4-4-4-4----| 
A|-2-2-2-2-2-2-2-2-6-6-6-6-6-6-6-6-7-7-7-7-7-7-7-7-3-3-3-3-2-2-2-2----| 
E|-0-0-0-0-0-0-0-0-4-4-4-4-4-4-4-4-5-5-5-5-5-5-5-5--------------------| 

 - Chorus 
(But they were wrong, wrong, wrong, you should be moving on...) 

Guitar 1 
e|--------------------------------------------------------------------| 
B|--------------------------------------------------------------------| 
G|--------------------------------------------------------------------| 
D|-5-5-5-5-5-5-5-5-4-4-4-4-4-4-4-4-2-2-2-2-2-2-2-2-3-3-3-3-4-4-4-4----| 
A|-5-5-5-5-5-5-5-5-5-5-5-5-5-5-5-5-2-2-2-2-2-2-2-2-3-3-3-3-5-5-5-5----|    2x 
E|-3-3-3-3-3-3-3-3-2-2-2-2-2-2-2-2-0-0-0-0-0-0-0-0-1-1-1-1-2-2-2-2----| 

Guitar 2 
e|----10------10----------------10------10---10---10------------------| 
B|--8----8/12----10~--10--12--8----8/12----8----8---------------------| 
G|--------------------------------------------------------------------| 
D|--------------------------------------------------------------------| 
A|--------------------------------------------------------------------|     2x 
E|--------------------------------------------------------------------| 

 - verse 2 
(And they were wrong about the weather, They said everything was grey...) 

Guitar 1 
e|--------------------------------------------------------------------| 
B|--------------------------------------------------------------------| 
G|-------------------------------------------------5-5-5-5-4-4-4-4----| 
D|-2-2-2-2-2-2-2-2-6-6-6-6-6-6-6-6-7-7-7-7-7-7-7-7-5-5-5-5-4-4-4-4----| 
A|-2-2-2-2-2-2-2-2-6-6-6-6-6-6-6-6-7-7-7-7-7-7-7-7-3-3-3-3-2-2-2-2----|    2x 
E|-0-0-0-0-0-0-0-0-4-4-4-4-4-4-4-4-5-5-5-5-5-5-5-5--------------------| 

 - Chorus 
(But they were wrong, wrong, wrong, You should be moving on...) 

Guitar 1 
e|--------------------------------------------------------------------| 
B|--------------------------------------------------------------------| 
G|--------------------------------------------------------------------| 
D|-5-5-5-5-5-5-5-5-4-4-4-4-4-4-4-4-2-2-2-2-2-2-2-2-3-3-3-3-4-4-4-4----| 
A|-5-5-5-5-5-5-5-5-5-5-5-5-5-5-5-5-2-2-2-2-2-2-2-2-3-3-3-3-5-5-5-5----|    2x 
E|-3-3-3-3-3-3-3-3-2-2-2-2-2-2-2-2-0-0-0-0-0-0-0-0-1-1-1-1-2-2-2-2----| 

Guitar 2 
e|----10------10----------------10------10---10---10------------------| 
B|--8----8/12----10~--10--12--8----8/12----8----8---------------------| 
G|--------------------------------------------------------------------| 
D|--------------------------------------------------------------------| 
A|--------------------------------------------------------------------|     2x 
E|--------------------------------------------------------------------| 

 - Bridge 
(Solo) 

Guitar 1 
e|--------------------------------------------------------------------| 
B|--------------------------------------------------------------------| 
G|-------------------------------------------------5-5-5-5-4-4-4-4----| 
D|-2-2-2-2-2-2-2-2-6-6-6-6-6-6-6-6-7-7-7-7-7-7-7-7-5-5-5-5-4-4-4-4----| 
A|-2-2-2-2-2-2-2-2-6-6-6-6-6-6-6-6-7-7-7-7-7-7-7-7-3-3-3-3-2-2-2-2----|    2x 
E|-0-0-0-0-0-0-0-0-4-4-4-4-4-4-4-4-5-5-5-5-5-5-5-5--------------------| 

Guitar 2 
e|--------------------------------------------------------------------| 
B|--8-77-55-4-2-0-2222-4-0-----2--------------------------------------| 
G|-------------------------2-4---44-22-00-2-4-5555-4-2----------------| 
D|--------------------------------------------------------------------| 
A|--------------------------------------------------------------------|    2x 
E|--------------------------------------------------------------------| 

 - Chorus 
(But they were wrong, wrong, wrong, you should be moving on...) 

Guitar 1 
e|--------------------------------------------------------------------| 
B|--------------------------------------------------------------------| 
G|--------------------------------------------------------------------| 
D|-5-5-5-5-5-5-5-5-4-4-4-4-4-4-4-4-2-2-2-2-2-2-2-2-3-3-3-3-4-4-4-4----| 
A|-5-5-5-5-5-5-5-5-5-5-5-5-5-5-5-5-2-2-2-2-2-2-2-2-3-3-3-3-5-5-5-5----|    3x 
E|-3-3-3-3-3-3-3-3-2-2-2-2-2-2-2-2-0-0-0-0-0-0-0-0-1-1-1-1-2-2-2-2----| 

Guitar 2 
e|----10------10----------------10------10---10---10------------------| 
B|--8----8/12----10~--10--12--8----8/12----8----8---------------------| 
G|--------------------------------------------------------------------| 
D|--------------------------------------------------------------------| 
A|--------------------------------------------------------------------|     3x 
E|--------------------------------------------------------------------| 

(Gone, Gone, Gone) 

Guitar 1 
e|-----------| 
B|-----------| 
G|-----------| 
D|-5----4----| 
A|-5----5----|     
E|-3----2----| 

Guitar 2 
e|---10~-----| 
B|-8~---10~--| 
G|-----------| 
D|-----------| 
A|-----------|     
E|-----------| 

- Tabbed by FabioBlenderBR 
- Don't forget to rate ;) 
	  

Search Paypal
auto scroll beats size up size down change color hide chords drawings
tab show chords e-chords YouTube Clip e-chords hide all tabs e-chords go to top tab