Face To Face

home > Face To Face

Late Tab

Face To Face

Difficulty: nolevelnolevel

tuner correct add songbook print version text version save to e-mail
chordsukulelecavacokeyboardtabbassdrumsharmonicsflute Guitar Pro
chords

Late

  		Intro
Guitar2
e------------------------------------------------------------------I 
B------------------------------------------------------------------I 
G--5---------------------------------------------------------------I 
D--5--fica fazendo isso sem parar até começar o verso--------------I 
A--3---------------------------------------------------------------I 
E------------------------------------------------------------------I 

Intro
Guitar1
e------------------------------------------------------------------I 
B------------------------------------------------------------------I 
G--5-----5-----5-7---11-5------------------------------------------I 
D--5-5-3-5-5-3-5-7-7-11-5-5-3--------------------------------------I 
A--3-5-3-3-5-3-3-5-7--8-3-5-3--------------------------------------I 
E----3-1---3-1-----5------3-1--------------------------------------I 

Verso
Guitar2 
e------------------------------------------------------------------I 
B------------------------------------------------------------------I 
G--------------5--7--10--9---------------------5--7--10--9---------I 
D-3-------------------------2x----3------------------------4x------I 
A-3-(abafado)--3--5---8--7--------3-(abafado)--3--5---8--7---------I 
E-1-------------------------------1--------------------------------I

Verso
Guitar1
e------------------------------------------------------------------I 
B------------------------------------------------------------------I 
G--------------5--7--10-----------------5--7--10--5--7--10---------I 
D-3------------5--7--10----3------------5--7--10--5--7--10---------I 
A-3-(abafado)--3--5---8----3-(abafado)--3--5---8--3--5---8---------I 
E-1------------------------1---------------------------------------I

Refrão
Guitar2
"I Don't Wanna Be,I Don't Want To Be Late" 
e------------------------------------------------------------------I 
B------------------------------------------------------------------I 
G--5---------------------------------------------------------------I 
D--5--fica fazendo isso sem parar até começar o verso--------------I 
A--3---------------------------------------------------------------I 
E------------------------------------------------------------------I 

Refrão
Guitar1
"I Don't Wanna Be,I Don't Want To Be Late" 
e------------------------------------------------------------------I 
B------------------------------------------------------------------I 
G--5-----5-----5-7---11-5------------------------------------------I 
D--5-5-3-5-5-3-5-7-7-11-5-5-3--------------------------------------I 
A--3-5-3-3-5-3-3-5-7--8-3-5-3--------------------------------------I 
E----3-1---3-1-----5------3-1--------------------------------------I 

Paradinha
Guitar2
e------------------------------------------------------------------I
B------------------------------------------------------------------I
G------------------------------------------------------------------I
D-5---5----com distorção de violão---------------------------------I
A-3-3-3-3----------------------------------------------------------I
E---1---1----------------------------------------------------------I

Paradinha
Guitar1
e------------------------------------------------------------------I 
B----------8-------8--------8-------8------------------------------I 
G--------5-------5---5----5-------5---5---4x---5-------------------I 
D------7-----7-7--------5-----5-5--------------5-5-3---------------I 
A----------------------------------------------3-5-3---------------I 
E------------------------------------------------3-1---------------I 

Refrão Final
Guitar2
"I Don't Wanna Be,I Don't Want To Be Late" 
e------------------------------------------------------------------I 
B------------------------------------------------------------------I 
G--5-----5-----5-------------------------5-----5-------------------I 
D--5-5-3-5-5-3-5-até o final do refrão---5-5-3-5-5-3---------------I 
A--3-5-3-3-5-3-3-------------------------3-5-3-5-3-3---------------I 
E----3-1---3-1-----------------------------3-1---3-1---------------I 

Refrão Final
Guitar1
"I Don't Wanna Be,I Don't Want To Be Late" 
e------------------------------------------------------------------I 
B------------------------------------------------------------------I 
G--5-----5-----5-7---11-7-9-11-9-7-5-----5-----5-------------------I 
D--5-5-3-5-5-3-5-7-7---------------5-5-3-5-5-3-5-5-3---------------I 
A--3-5-3-3-5-3-3-5-7--8-5-7--9-7-5-3-5-3-3-5-3-3-5-3---------------I 
E----3-1---3-1-----5-----------------3-1---3-1---3-1---------------I 



_______________________________________________________
Contribuição: Maycon André Mantau Espindola([email protected])
	  

Search Paypal
auto scroll beats size up size down change color hide chords drawings
tab show chords e-chords YouTube Clip e-chords hide all tabs e-chords go to top tab